   0
SECTION
   2
HEADER
   9
$ACADVER
   1
AC1014
   9
$ACADMAINTVER
  70
0
   9
$DWGCODEPAGE
   3
DOS932
   9
$INSBASE
  10
0.000000
  20
0.000000
  30
0.000000
   9
$EXTMIN
  10
-16301.456949
  20
-17190.161585
  30
-0.500000
   9
$EXTMAX
  10
14350.500000
  20
17098.948498
  30
0.500000
   9
$LIMMIN
  10
-2500000000000.000000
  20
-2500000000000.000000
   9
$LIMMAX
  10
2500000000000.000000
  20
2500000000000.000000
   9
$ORTHOMODE
  70
0
   9
$REGENMODE
  70
1
   9
$FILLMODE
  70
1
   9
$QTEXTMODE
  70
0
   9
$MIRRTEXT
  70
0
   9
$DRAGMODE
  70
2
   9
$LTSCALE
  40
1.000000
   9
$OSMODE
  70
0
   9
$ATTMODE
  70
1
   9
$TEXTSIZE
  40
2.500000
   9
$TRACEWID
  40
1.000000
   9
$TEXTSTYLE
   7
STANDARD
   9
$CLAYER
   8
0
   9
$CELTYPE
   6
BYLAYER
   9
$CECOLOR
  62
256
   9
$CELTSCALE
  40
1.000000
   9
$DELOBJ
  70
1
   9
$DISPSILH
  70
0
   9
$DIMSCALE
  40
1.000000
   9
$DIMASZ
  40
0.180000
   9
$DIMEXO
  40
0.062500
   9
$DIMDLI
  40
0.380000
   9
$DIMRND
  40
0.000000
   9
$DIMDLE
  40
0.000000
   9
$DIMEXE
  40
0.180000
   9
$DIMTP
  40
0.000000
   9
$DIMTM
  40
0.000000
   9
$DIMTXT
  40
0.180000
   9
$DIMCEN
  40
0.090000
   9
$DIMTSZ
  40
0.000000
   9
$DIMTOL
  70
0
   9
$DIMLIM
  70
0
   9
$DIMTIH
  70
1
   9
$DIMTOH
  70
1
   9
$DIMSE1
  70
0
   9
$DIMSE2
  70
0
   9
$DIMTAD
  70
0
   9
$DIMZIN
  70
0
   9
$DIMBLK
   1

   9
$DIMASO
  70
1
   9
$DIMSHO
  70
1
   9
$DIMPOST
   1

   9
$DIMAPOST
   1

   9
$DIMALT
  70
0
   9
$DIMALTD
  70
2
   9
$DIMALTF
  40
25.400000
   9
$DIMLFAC
  40
1.000000
   9
$DIMTOFL
  70
0
   9
$DIMTVP
  40
0.000000
   9
$DIMTIX
  70
0
   9
$DIMSOXD
  70
0
   9
$DIMSAH
  70
0
   9
$DIMBLK1
   1

   9
$DIMBLK2
   1

   9
$DIMSTYLE
   2
STANDARD
   9
$DIMCLRD
  70
0
   9
$DIMCLRE
  70
0
   9
$DIMCLRT
  70
0
   9
$DIMTFAC
  40
1.000000
   9
$DIMGAP
  40
0.090000
   9
$DIMJUST
  70
0
   9
$DIMSD1
  70
0
   9
$DIMSD2
  70
0
   9
$DIMTOLJ
  70
1
   9
$DIMTZIN
  70
0
   9
$DIMALTZ
  70
0
   9
$DIMALTTZ
  70
0
   9
$DIMFIT
  70
3
   9
$DIMUPT
  70
0
   9
$DIMUNIT
  70
2
   9
$DIMDEC
  70
4
   9
$DIMTDEC
  70
4
   9
$DIMALTU
  70
2
   9
$DIMALTTD
  70
2
   9
$DIMTXSTY
   7
STANDARD
   9
$DIMAUNIT
  70
0
   9
$LUNITS
  70
2
   9
$LUPREC
  70
4
   9
$SKETCHINC
  40
0.100000
   9
$FILLETRAD
  40
0.000000
   9
$AUNITS
  70
0
   9
$AUPREC
  70
0
   9
$MENU
   1
.
   9
$ELEVATION
  40
0.000000
   9
$PELEVATION
  40
0.000000
   9
$THICKNESS
  40
0.000000
   9
$LIMCHECK
  70
0
   9
$BLIPMODE
  70
1
   9
$CHAMFERA
  40
0.000000
   9
$CHAMFERB
  40
0.000000
   9
$CHAMFERC
  40
0.000000
   9
$CHAMFERD
  40
0.000000
   9
$SKPOLY
  70
0
   9
$TDCREATE
  40
2453459.641863426
   9
$TDUPDATE
  40
2453459.641863426
   9
$TDINDWG
  40
0.000000
   9
$TDUSRTIMER
  40
0.000000
   9
$USRTIMER
  70
1
   9
$ANGBASE
  50
0.000000
   9
$ANGDIR
  70
0
   9
$PDMODE
  70
0
   9
$PDSIZE
  40
0.000000
   9
$PLINEWID
  40
0.000000
   9
$COORDS
  70
1
   9
$SPLFRAME
  70
0
   9
$SPLINETYPE
  70
6
   9
$SPLINESEGS
  70
8
   9
$ATTDIA
  70
0
   9
$ATTREQ
  70
1
   9
$HANDLING
  70
1
   9
$HANDSEED
   5
             1ED
   9
$SURFTAB1
  70
6
   9
$SURFTAB2
  70
6
   9
$SURFTYPE
  70
6
   9
$SURFU
  70
6
   9
$SURFV
  70
6
   9
$UCSNAME
   2

   9
$UCSORG
  10
0.000000
  20
0.000000
  30
0.000000
   9
$UCSXDIR
  10
1.000000
  20
0.000000
  30
0.000000
   9
$UCSYDIR
  10
0.000000
  20
1.000000
  30
0.000000
   9
$PUCSNAME
   2

   9
$PUCSORG
  10
0.000000
  20
0.000000
  30
0.000000
   9
$PUCSXDIR
  10
1.000000
  20
0.000000
  30
0.000000
   9
$PUCSYDIR
  10
0.000000
  20
1.000000
  30
0.000000
   9
$USERI1
  70
0
   9
$USERI2
  70
0
   9
$USERI3
  70
0
   9
$USERI4
  70
0
   9
$USERI5
  70
0
   9
$USERR1
  40
0.000000
   9
$USERR2
  40
0.000000
   9
$USERR3
  40
0.000000
   9
$USERR4
  40
0.000000
   9
$USERR5
  40
0.000000
   9
$WORLDVIEW
  70
1
   9
$SHADEDGE
  70
3
   9
$SHADEDIF
  70
70
   9
$TILEMODE
  70
1
   9
$MAXACTVP
  70
16
   9
$PINSBASE
  10
0.000000
  20
0.000000
  30
0.000000
   9
$PLIMCHECK
  70
0
   9
$PEXTMIN
  10
-16301.456949
  20
-17190.161585
  30
-0.500000
   9
$PEXTMAX
  10
14350.500000
  20
17098.948498
  30
0.500000
   9
$PLIMMIN
  10
-16301.456949
  20
-17190.161585
   9
$PLIMMAX
  10
14350.500000
  20
17098.948498
   9
$UNITMODE
  70
0
   9
$VISRETAIN
  70
0
   9
$PLINEGEN
  70
0
   9
$PSLTSCALE
  70
1
   9
$TREEDEPTH
  70
3020
   9
$PICKSTYLE
  70
1
   9
$CMLSTYLE
   2
STANDARD
   9
$CMLJUST
  70
0
   9
$CMLSCALE
  40
1.000000
   9
$PROXYGRAPHICS
  70
0
   9
$MEASUREMENT
  70
1
   0
ENDSEC
   0
SECTION
   2
CLASSES
   0
CLASS
   1
LWPOLYLINE
   2
AcDbPolyline
   3
"AutoCAD"
  90
0
 280
0
 281
1
   0
CLASS
   1
HATCH
   2
AcDbHatch
   3
"ACAD_SEDONA"
  90
0
 280
0
 281
1
   0
ENDSEC
   0
SECTION
   2
TABLES
   0
TABLE
   2
VPORT
   5
1
 100
AcDbSymbolTable
  70
1
   0
VPORT
   5
2
 100
AcDbSymbolTableRecord
 100
AcDbViewportTableRecord
   2
*ACTIVE
  70
0
  10
0.000000
  20
0.000000
  11
1.000000
  21
1.000000
  12
0.000000
  22
0.000000
  13
0.000000
  23
0.000000
  14
1000.000000
  24
1000.000000
  15
1000.000000
  25
1000.000000
  16
0.000000
  26
0.000000
  36
1.000000
  17
0.000000
  27
0.000000
  37
0.000000
  40
37128.000000
  41
1.512868
  42
50.000000
  43
0.000000
  44
0.000000
  50
0.000000
  51
0.000000
  71
0
  72
100
  73
1
  74
1
  75
0
  76
0
  77
0
  78
0
   0
ENDTAB
   0
TABLE
   2
LTYPE
   5
3
 100
AcDbSymbolTable
  70
10
   0
LTYPE
   5
4
 100
AcDbSymbolTableRecord
 100
AcDbLinetypeTableRecord
   2
BYLAYER
  70
64
   3

  72
65
  73
0
  40
0.000000
   0
LTYPE
   5
5
 100
AcDbSymbolTableRecord
 100
AcDbLinetypeTableRecord
   2
BYBLOCK
  70
64
   3

  72
65
  73
0
  40
0.000000
   0
LTYPE
   5
6
 100
AcDbSymbolTableRecord
 100
AcDbLinetypeTableRecord
   2
CONTINUOUS
  70
64
   3
Solid line
  72
65
  73
0
  40
0.000000
   0
LTYPE
   5
7
 100
AcDbSymbolTableRecord
 100
AcDbLinetypeTableRecord
   2
DEFAULT
  70
64
   3
MicroGDS Compact3D --------------------------
  72
65
  73
0
  40
0.000000
   0
LTYPE
   5
8
 100
AcDbSymbolTableRecord
 100
AcDbLinetypeTableRecord
   2
BLANK
  70
64
   3

  72
65
  73
0
  40
0.000000
   0
LTYPE
   5
9
 100
AcDbSymbolTableRecord
 100
AcDbLinetypeTableRecord
   2
ポイント01
  70
64
   3
MicroGDS Compact3D --------------------------
  72
65
  73
0
  40
0.000000
   0
LTYPE
   5
A
 100
AcDbSymbolTableRecord
 100
AcDbLinetypeTableRecord
   2
一点鎖線01
  70
64
   3
MicroGDS Compact3D --   -  --  --   -  --  
  72
65
  73
5
  40
350.000000
  49
100.000000
  74
0
  49
-50.000000
  74
0
  49
50.000000
  74
0
  49
-50.000000
  74
0
  49
100.000000
  74
0
   0
LTYPE
   5
B
 100
AcDbSymbolTableRecord
 100
AcDbLinetypeTableRecord
   2
実線01
  70
64
   3
MicroGDS Compact3D --------------------------
  72
65
  73
0
  40
0.000000
   0
LTYPE
   5
C
 100
AcDbSymbolTableRecord
 100
AcDbLinetypeTableRecord
   2
実線03
  70
64
   3
MicroGDS Compact3D --------------------------
  72
65
  73
0
  40
0.000000
   0
LTYPE
   5
D
 100
AcDbSymbolTableRecord
 100
AcDbLinetypeTableRecord
   2
破線01
  70
64
   3
MicroGDS Compact3D --    --    --    --    
  72
65
  73
2
  40
200.000000
  49
100.000000
  74
0
  49
-100.000000
  74
0
   0
ENDTAB
   0
TABLE
   2
LAYER
   5
F
 100
AcDbSymbolTable
  70
13
   0
LAYER
   5
10
 100
AcDbSymbolTableRecord
 100
AcDbLayerTableRecord
   2
0
  70
64
  62
7
   6
CONTINUOUS
   0
LAYER
   5
11
 100
AcDbSymbolTableRecord
 100
AcDbLayerTableRecord
   2
図面枠
  70
64
  62
1
   6
CONTINUOUS
   0
LAYER
   5
12
 100
AcDbSymbolTableRecord
 100
AcDbLayerTableRecord
   2
基準線
  70
64
  62
2
   6
CONTINUOUS
   0
LAYER
   5
13
 100
AcDbSymbolTableRecord
 100
AcDbLayerTableRecord
   2
下描線
  70
64
  62
3
   6
CONTINUOUS
   0
LAYER
   5
14
 100
AcDbSymbolTableRecord
 100
AcDbLayerTableRecord
   2
躯体
  70
64
  62
4
   6
CONTINUOUS
   0
LAYER
   5
15
 100
AcDbSymbolTableRecord
 100
AcDbLayerTableRecord
   2
間仕切
  70
64
  62
5
   6
CONTINUOUS
   0
LAYER
   5
16
 100
AcDbSymbolTableRecord
 100
AcDbLayerTableRecord
   2
仕上
  70
64
  62
6
   6
CONTINUOUS
   0
LAYER
   5
17
 100
AcDbSymbolTableRecord
 100
AcDbLayerTableRecord
   2
建具
  70
64
  62
7
   6
CONTINUOUS
   0
LAYER
   5
18
 100
AcDbSymbolTableRecord
 100
AcDbLayerTableRecord
   2
家具
  70
64
  62
8
   6
CONTINUOUS
   0
LAYER
   5
19
 100
AcDbSymbolTableRecord
 100
AcDbLayerTableRecord
   2
寸法線
  70
64
  62
9
   6
CONTINUOUS
   0
LAYER
   5
1A
 100
AcDbSymbolTableRecord
 100
AcDbLayerTableRecord
   2
文字
  70
64
  62
10
   6
CONTINUOUS
   0
LAYER
   5
1B
 100
AcDbSymbolTableRecord
 100
AcDbLayerTableRecord
   2
外構
  70
64
  62
11
   6
CONTINUOUS
   0
LAYER
   5
1C
 100
AcDbSymbolTableRecord
 100
AcDbLayerTableRecord
   2
その他
  70
64
  62
12
   6
CONTINUOUS
   0
ENDTAB
   0
TABLE
   2
STYLE
   5
1D
 100
AcDbSymbolTable
  70
3
   0
STYLE
   5
1E
 100
AcDbSymbolTableRecord
 100
AcDbTextStyleTableRecord
   2
DEFAULT
  70
64
  40
0.000000
  41
1.000000
  50
0.000000
  71
0
  42
0.350000
   3
TXT
   4
BIGFONT
   0
STYLE
   5
1F
 100
AcDbSymbolTableRecord
 100
AcDbTextStyleTableRecord
   2
ゴシック50
  70
64
  40
0.000000
  41
1.000000
  50
0.000000
  71
0
  42
0.350000
   3
MS Gothic.ttf
   4

1001
ACAD
1000
MS Gothic
1071
32817
   0
STYLE
   5
20
 100
AcDbSymbolTableRecord
 100
AcDbTextStyleTableRecord
   2
STANDARD
  70
64
  40
0.000000
  41
1.000000
  50
0.000000
  71
0
  42
0.350000
   3
txt
   4

   0
ENDTAB
   0
TABLE
   2
VIEW
   5
21
 100
AcDbSymbolTable
  70
0
   0
ENDTAB
   0
TABLE
   2
UCS
   5
22
 100
AcDbSymbolTable
  70
0
   0
ENDTAB
   0
TABLE
   2
APPID
   5
23
 100
AcDbSymbolTable
  70
1
   0
APPID
   5
24
 100
AcDbSymbolTableRecord
 100
AcDbRegAppTableRecord
   2
ACAD
  70
0
   0
ENDTAB
   0
TABLE
   2
DIMSTYLE
   5
25
 100
AcDbSymbolTable
  70
1
   0
DIMSTYLE
 105
26
 100
AcDbSymbolTableRecord
 100
AcDbDimStyleTableRecord
   2
STANDARD
  70
0
   3

   4

   5

   6

   7

  40
1.000000
  41
0.180000
  42
0.062500
  43
0.380000
  44
0.180000
  45
0.000000
  46
0.000000
  47
0.000000
  48
0.000000
 140
0.180000
 141
0.090000
 142
0.000000
 143
25.400000
 144
1.000000
 145
0.000000
 146
1.000000
 147
0.090000
  71
0
  72
0
  73
1
  74
1
  75
0
  76
0
  77
0
  78
0
 170
0
 171
2
 172
0
 173
0
 174
0
 175
0
 176
0
 177
0
 178
0
 270
2
 271
4
 272
4
 273
2
 274
2
 340
20
 275
0
 280
0
 281
0
 282
0
 283
1
 284
0
 285
0
 286
0
 287
3
 288
0
   0
ENDTAB
   0
TABLE
   2
BLOCK_RECORD
   5
27
 100
AcDbSymbolTable
  70
43
   0
BLOCK_RECORD
   5
28
 100
AcDbSymbolTableRecord
 100
AcDbBlockTableRecord
   2
*MODEL_SPACE
   0
BLOCK_RECORD
   5
29
 100
AcDbSymbolTableRecord
 100
AcDbBlockTableRecord
   2
*PAPER_SPACE
   0
BLOCK_RECORD
   5
2A
 100
AcDbSymbolTableRecord
 100
AcDbBlockTableRecord
   2
NO_NAME
   0
BLOCK_RECORD
   5
2B
 100
AcDbSymbolTableRecord
 100
AcDbBlockTableRecord
   2
NO_NAME$0
   0
BLOCK_RECORD
   5
2C
 100
AcDbSymbolTableRecord
 100
AcDbBlockTableRecord
   2
NO_NAME_HATCH
   0
BLOCK_RECORD
   5
2D
 100
AcDbSymbolTableRecord
 100
AcDbBlockTableRecord
   2
NO_NAME_DIMCHAIN
   0
BLOCK_RECORD
   5
2E
 100
AcDbSymbolTableRecord
 100
AcDbBlockTableRecord
   2
NO_NAME_DIMCHAIN$0
   0
BLOCK_RECORD
   5
2F
 100
AcDbSymbolTableRecord
 100
AcDbBlockTableRecord
   2
NO_NAME_DIMCHAIN$1
   0
BLOCK_RECORD
   5
30
 100
AcDbSymbolTableRecord
 100
AcDbBlockTableRecord
   2
NO_NAME_DIMCHAIN$2
   0
BLOCK_RECORD
   5
31
 100
AcDbSymbolTableRecord
 100
AcDbBlockTableRecord
   2
NO_NAME_DIMCHAIN$3
   0
BLOCK_RECORD
   5
32
 100
AcDbSymbolTableRecord
 100
AcDbBlockTableRecord
   2
NO_NAME_DIMCHAIN$4
   0
BLOCK_RECORD
   5
33
 100
AcDbSymbolTableRecord
 100
AcDbBlockTableRecord
   2
NO_NAME_DIMCHAIN$5
   0
BLOCK_RECORD
   5
34
 100
AcDbSymbolTableRecord
 100
AcDbBlockTableRecord
   2
NO_NAME_DIMCHAIN$6
   0
BLOCK_RECORD
   5
35
 100
AcDbSymbolTableRecord
 100
AcDbBlockTableRecord
   2
NO_NAME_DIMCHAIN$7
   0
BLOCK_RECORD
   5
36
 100
AcDbSymbolTableRecord
 100
AcDbBlockTableRecord
   2
NO_NAME_DIMCHAIN$8
   0
BLOCK_RECORD
   5
37
 100
AcDbSymbolTableRecord
 100
AcDbBlockTableRecord
   2
NO_NAME_DIMCHAIN$9
   0
BLOCK_RECORD
   5
38
 100
AcDbSymbolTableRecord
 100
AcDbBlockTableRecord
   2
NO_NAME_DIMCHAIN$10
   0
BLOCK_RECORD
   5
39
 100
AcDbSymbolTableRecord
 100
AcDbBlockTableRecord
   2
NO_NAME_DIMCHAIN$11
   0
BLOCK_RECORD
   5
3A
 100
AcDbSymbolTableRecord
 100
AcDbBlockTableRecord
   2
NO_NAME_DIMCHAIN$12
   0
BLOCK_RECORD
   5
3B
 100
AcDbSymbolTableRecord
 100
AcDbBlockTableRecord
   2
NO_NAME_DIMCHAIN$13
   0
BLOCK_RECORD
   5
3C
 100
AcDbSymbolTableRecord
 100
AcDbBlockTableRecord
   2
NO_NAME_DIMCHAIN$14
   0
BLOCK_RECORD
   5
3D
 100
AcDbSymbolTableRecord
 100
AcDbBlockTableRecord
   2
NO_NAME_DIMCHAIN$15
   0
BLOCK_RECORD
   5
3E
 100
AcDbSymbolTableRecord
 100
AcDbBlockTableRecord
   2
NO_NAME_DIMCHAIN$16
   0
BLOCK_RECORD
   5
3F
 100
AcDbSymbolTableRecord
 100
AcDbBlockTableRecord
   2
NO_NAME_DIMCHAIN$17
   0
BLOCK_RECORD
   5
40
 100
AcDbSymbolTableRecord
 100
AcDbBlockTableRecord
   2
NO_NAME_DIMCHAIN$18
   0
BLOCK_RECORD
   5
41
 100
AcDbSymbolTableRecord
 100
AcDbBlockTableRecord
   2
NO_NAME_DIMCHAIN$19
   0
BLOCK_RECORD
   5
42
 100
AcDbSymbolTableRecord
 100
AcDbBlockTableRecord
   2
NO_NAME_DIMCHAIN$20
   0
BLOCK_RECORD
   5
43
 100
AcDbSymbolTableRecord
 100
AcDbBlockTableRecord
   2
NO_NAME_DIMCHAIN$21
   0
BLOCK_RECORD
   5
44
 100
AcDbSymbolTableRecord
 100
AcDbBlockTableRecord
   2
NO_NAME_DIMCHAIN$22
   0
BLOCK_RECORD
   5
45
 100
AcDbSymbolTableRecord
 100
AcDbBlockTableRecord
   2
NO_NAME_DIMCHAIN$23
   0
BLOCK_RECORD
   5
46
 100
AcDbSymbolTableRecord
 100
AcDbBlockTableRecord
   2
NO_NAME_DIMCHAIN$24
   0
BLOCK_RECORD
   5
47
 100
AcDbSymbolTableRecord
 100
AcDbBlockTableRecord
   2
NO_NAME_DIMCHAIN$25
   0
BLOCK_RECORD
   5
48
 100
AcDbSymbolTableRecord
 100
AcDbBlockTableRecord
   2
NO_NAME_DIMCHAIN$26
   0
BLOCK_RECORD
   5
49
 100
AcDbSymbolTableRecord
 100
AcDbBlockTableRecord
   2
NO_NAME_DIMCHAIN$27
   0
BLOCK_RECORD
   5
4A
 100
AcDbSymbolTableRecord
 100
AcDbBlockTableRecord
   2
NO_NAME_DIMCHAIN$28
   0
BLOCK_RECORD
   5
4B
 100
AcDbSymbolTableRecord
 100
AcDbBlockTableRecord
   2
NO_NAME_DIMCHAIN$29
   0
BLOCK_RECORD
   5
4C
 100
AcDbSymbolTableRecord
 100
AcDbBlockTableRecord
   2
NO_NAME_DIMCHAIN$30
   0
BLOCK_RECORD
   5
4D
 100
AcDbSymbolTableRecord
 100
AcDbBlockTableRecord
   2
NO_NAME_DIMCHAIN$31
   0
BLOCK_RECORD
   5
4E
 100
AcDbSymbolTableRecord
 100
AcDbBlockTableRecord
   2
NO_NAME_DIMCHAIN$32
   0
BLOCK_RECORD
   5
4F
 100
AcDbSymbolTableRecord
 100
AcDbBlockTableRecord
   2
NO_NAME_DIMCHAIN$33
   0
BLOCK_RECORD
   5
50
 100
AcDbSymbolTableRecord
 100
AcDbBlockTableRecord
   2
NO_NAME_DIMCHAIN$34
   0
BLOCK_RECORD
   5
51
 100
AcDbSymbolTableRecord
 100
AcDbBlockTableRecord
   2
NO_NAME$1
   0
BLOCK_RECORD
   5
52
 100
AcDbSymbolTableRecord
 100
AcDbBlockTableRecord
   2
NO_NAME$2
   0
ENDTAB
   0
ENDSEC
   0
SECTION
   2
BLOCKS
   0
BLOCK
   5
53
 100
AcDbEntity
   8
0
 100
AcDbBlockBegin
   2
*MODEL_SPACE
  70
0
  10
0.000000
  20
0.000000
  30
0.000000
   1

   3
*MODEL_SPACE
   0
ENDBLK
   5
54
 100
AcDbEntity
   8
0
 100
AcDbBlockEnd
   0
BLOCK
   5
55
 100
AcDbEntity
  67
1
   8
0
 100
AcDbBlockBegin
   2
*PAPER_SPACE
  70
0
  10
0.000000
  20
0.000000
  30
0.000000
   1

   3
*PAPER_SPACE
   0
ENDBLK
   5
56
 100
AcDbEntity
  67
1
   8
0
 100
AcDbBlockEnd
   0
BLOCK
   5
57
 100
AcDbEntity
   8
図面枠
 100
AcDbBlockBegin
   2
NO_NAME
  70
0
  10
0.000000
  20
0.000000
  30
0.000000
   1

   3
NO_NAME
   0
ATTDEF
   5
58
 100
AcDbEntity
   8
0
 100
AcDbText
  10
0.000000
  20
0.000000
  30
0.000000
  40
2.500000
   1
no:name
 100
AcDbAttributeDefinition
   3

   2
ISI_MICROGDS_OBJECT_NAME
  70
3
   0
LWPOLYLINE
   5
59
 100
AcDbEntity
   8
0
   6
実線03
 100
AcDbPolyline
  90
4
  70
1
  43
0.000000
  38
0.000000
  10
96.448436
  20
6984.575500
  10
590.312676
  20
3947.842922
  10
-9147.321243
  20
-15527.424500
  10
-11159.782285
  20
-15527.424500
   0
LWPOLYLINE
   5
5A
 100
AcDbEntity
   8
0
   6
実線03
 100
AcDbPolyline
  90
4
  70
1
  43
0.000000
  38
0.000000
  10
2096.448436
  20
6984.575500
  10
1596.448436
  20
3960.114443
  10
11340.218116
  20
-15527.424500
  10
13352.679262
  20
-15527.424500
   0
LWPOLYLINE
   5
5B
 100
AcDbEntity
   8
0
   6
実線03
 100
AcDbPolyline
  90
4
  70
0
  43
0.000000
  38
0.000000
  10
-6654.795049
  20
-6527.424500
  10
-11403.551564
  20
-6527.424500
  10
-11403.551564
  20
-9527.424500
  10
-8156.457461
  20
-9527.424500
   0
LINE
   5
5C
 100
AcDbEntity
   8
0
   6
実線03
 100
AcDbLine
  10
-4635.745646
  20
-6527.424500
  30
0.000000
  11
-403.551564
  21
-6527.424500
  31
0.000000
   0
LINE
   5
5D
 100
AcDbEntity
   8
0
   6
実線03
 100
AcDbLine
  10
2596.448436
  20
-6527.424500
  30
0.000000
  11
6815.576180
  21
-6527.424500
  31
0.000000
   0
LWPOLYLINE
   5
5E
 100
AcDbEntity
   8
0
   6
実線03
 100
AcDbPolyline
  90
4
  70
0
  43
0.000000
  38
0.000000
  10
8847.691984
  20
-6527.424500
  10
13596.448436
  20
-6527.424500
  10
13596.448436
  20
-9527.424500
  10
10349.354410
  20
-9527.424500
   0
LINE
   5
5F
 100
AcDbEntity
   8
0
   6
実線03
 100
AcDbLine
  10
8323.790159
  20
-9527.424500
  30
0.000000
  11
2096.448436
  21
-9527.424500
  31
0.000000
   0
LINE
   5
60
 100
AcDbEntity
   8
0
   6
実線03
 100
AcDbLine
  10
96.448436
  20
-9527.424500
  30
0.000000
  11
-6139.604178
  21
-9527.424500
  31
0.000000
   0
LWPOLYLINE
   5
61
 100
AcDbEntity
   8
0
   6
実線03
 100
AcDbPolyline
  90
3
  70
0
  43
0.000000
  38
0.000000
  10
-403.551564
  20
1915.246119
  10
-403.551564
  20
-7027.424500
  10
96.448436
  20
-7027.424500
   0
LWPOLYLINE
   5
62
 100
AcDbEntity
   8
0
   6
実線03
 100
AcDbPolyline
  90
3
  70
0
  43
0.000000
  38
0.000000
  10
2096.448436
  20
-7027.424500
  10
2596.448436
  20
-7027.424500
  10
2596.448436
  20
1864.874876
   0
LWPOLYLINE
   5
63
 100
AcDbEntity
   8
0
   6
実線03
 100
AcDbPolyline
  90
4
  70
0
  43
0.000000
  38
0.000000
  10
96.448436
  20
2960.114443
  10
96.448436
  20
-15527.424500
  10
2096.448436
  20
-15527.424500
  10
2096.448436
  20
2960.114464
   0
LWPOLYLINE
   5
64
 100
AcDbEntity
   8
0
   6
実線03
 100
AcDbPolyline
  90
4
  70
1
  43
0.000000
  38
0.000000
  10
-403.551564
  20
13472.575500
  10
2596.448436
  20
13472.575500
  10
2596.448436
  20
10472.575500
  10
-403.551564
  20
10472.575500
   0
LINE
   5
65
 100
AcDbEntity
   8
0
   6
実線03
 100
AcDbLine
  10
96.448436
  20
10472.575500
  30
0.000000
  11
96.448436
  21
6960.114571
  31
0.000000
   0
LINE
   5
66
 100
AcDbEntity
   8
0
   6
実線03
 100
AcDbLine
  10
2096.448436
  20
10472.575500
  30
0.000000
  11
2096.448436
  21
6960.114571
  31
0.000000
   0
LINE
   5
67
 100
AcDbEntity
   8
0
   6
実線03
 100
AcDbLine
  10
2596.448436
  20
10472.575500
  30
0.000000
  11
2596.448436
  21
5961.221628
  31
0.000000
   0
LINE
   5
68
 100
AcDbEntity
   8
0
   6
実線03
 100
AcDbLine
  10
-403.551564
  20
10472.575500
  30
0.000000
  11
-403.551564
  21
5961.221618
  31
0.000000
   0
LWPOLYLINE
   5
69
 100
AcDbEntity
   8
0
   6
実線03
 100
AcDbPolyline
  90
4
  70
0
  43
0.000000
  38
0.000000
  10
646.448436
  20
13472.575500
  10
646.448436
  20
15972.575500
  10
1546.448436
  20
15972.575500
  10
1546.448436
  20
13472.575500
   0
LWPOLYLINE
   5
6A
 100
AcDbEntity
   8
0
   6
実線03
 100
AcDbPolyline
  90
4
  70
0
  43
0.000000
  38
0.000000
  10
-403.551564
  20
13472.575500
  10
-2653.551564
  20
13472.575500
  10
-2653.551564
  20
14072.575500
  10
646.448436
  20
14072.575500
   0
LWPOLYLINE
   5
6B
 100
AcDbEntity
   8
0
   6
実線03
 100
AcDbPolyline
  90
4
  70
0
  43
0.000000
  38
0.000000
  10
1546.448436
  20
14072.575500
  10
4846.448436
  20
14072.575500
  10
4846.448436
  20
13472.575500
  10
2596.448436
  20
13472.575500
   0
LWPOLYLINE
   5
6C
 100
AcDbEntity
   8
0
   6
実線03
 100
AcDbPolyline
  90
4
  70
1
  43
0.000000
  38
0.000000
  10
-4601.458565
  20
-15527.424500
  10
-4064.747900
  20
-16600.737717
  10
-934.956391
  20
-15034.107610
  10
-1473.566287
  20
-13961.745060
   0
LINE
   5
6D
 100
AcDbEntity
   8
0
   6
実線03
 100
AcDbLine
  10
-5970.787121
  20
-12803.682561
  30
0.000000
  11
-4601.458565
  21
-15527.424500
  31
0.000000
   0
LWPOLYLINE
   5
6E
 100
AcDbEntity
   8
0
   6
実線03
 100
AcDbPolyline
  90
6
  70
0
  43
0.000000
  38
0.000000
  10
-10376.926519
  20
-13961.745060
  10
-13903.551564
  20
-13961.745060
  10
-13903.551564
  20
-16600.737717
  10
13890.127355
  20
-16602.299044
  10
13352.679149
  20
-15527.424673
  10
-13909.852996
  20
-15527.424500
   0
LINE
   5
6F
 100
AcDbEntity
   8
0
   6
実線03
 100
AcDbLine
  10
2080.290440
  20
-13961.745060
  30
0.000000
  11
10533.708989
  21
-13961.745060
  31
0.000000
   0
LINE
   5
70
 100
AcDbEntity
   8
0
   6
実線03
 100
AcDbLine
  10
-8361.274477
  20
-13955.331001
  30
0.000000
  11
96.448436
  21
-13961.745060
  31
0.000000
   0
LINE
   5
71
 100
AcDbEntity
   8
0
   6
実線03
 100
AcDbLine
  10
-1918.776598
  20
-14184.596926
  30
0.000000
  11
-3173.959168
  21
-11674.435530
  31
0.000000
   0
ENDBLK
   5
72
 100
AcDbEntity
   8
図面枠
 100
AcDbBlockEnd
   0
BLOCK
   5
73
 100
AcDbEntity
   8
図面枠
 100
AcDbBlockBegin
   2
NO_NAME$0
  70
0
  10
0.000000
  20
0.000000
  30
0.000000
   1

   3
NO_NAME$0
   0
ATTDEF
   5
74
 100
AcDbEntity
   8
0
 100
AcDbText
  10
0.000000
  20
0.000000
  30
0.000000
  40
2.500000
   1
no:name
 100
AcDbAttributeDefinition
   3

   2
ISI_MICROGDS_OBJECT_NAME
  70
3
   0
LWPOLYLINE
   5
75
 100
AcDbEntity
   8
0
   6
一点鎖線01
 100
AcDbPolyline
  90
3
  70
0
  43
0.000000
  38
0.000000
  10
-10689.619671
  20
-16599.560522
  10
1096.448436
  20
6972.575693
  10
12882.516544
  20
-16599.560522
   0
LINE
   5
76
 100
AcDbEntity
   8
0
   6
一点鎖線01
 100
AcDbLine
  10
-11403.551564
  20
-8027.424500
  30
0.000000
  11
13596.448436
  21
-8027.424500
  31
0.000000
   0
LINE
   5
77
 100
AcDbEntity
   8
0
   6
破線01
 100
AcDbLine
  10
-6654.795049
  20
-6527.424500
  30
0.000000
  11
-4635.745646
  21
-6527.424500
  31
0.000000
   0
LINE
   5
78
 100
AcDbEntity
   8
0
   6
破線01
 100
AcDbLine
  10
6815.576180
  20
-6527.424500
  30
0.000000
  11
8847.691984
  21
-6527.424500
  31
0.000000
   0
LINE
   5
79
 100
AcDbEntity
   8
0
   6
破線01
 100
AcDbLine
  10
8323.790159
  20
-9527.424500
  30
0.000000
  11
10349.354410
  21
-9527.424500
  31
0.000000
   0
LINE
   5
7A
 100
AcDbEntity
   8
0
   6
破線01
 100
AcDbLine
  10
-403.551564
  20
-6527.424500
  30
0.000000
  11
2596.448436
  21
-6527.424500
  31
0.000000
   0
LINE
   5
7B
 100
AcDbEntity
   8
0
   6
破線01
 100
AcDbLine
  10
96.448436
  20
-9527.424500
  30
0.000000
  11
2096.448436
  21
-9527.424500
  31
0.000000
   0
LINE
   5
7C
 100
AcDbEntity
   8
0
   6
破線01
 100
AcDbLine
  10
-403.551564
  20
5961.221618
  30
0.000000
  11
-403.551564
  21
1915.246119
  31
0.000000
   0
LINE
   5
7D
 100
AcDbEntity
   8
0
   6
破線01
 100
AcDbLine
  10
96.448436
  20
6960.114571
  30
0.000000
  11
96.448436
  21
2912.680364
  31
0.000000
   0
LINE
   5
7E
 100
AcDbEntity
   8
0
   6
破線01
 100
AcDbLine
  10
2096.448436
  20
6960.114571
  30
0.000000
  11
2096.448436
  21
2859.428713
  31
0.000000
   0
LINE
   5
7F
 100
AcDbEntity
   8
0
   6
破線01
 100
AcDbLine
  10
2596.448436
  20
5961.221628
  30
0.000000
  11
2596.448436
  21
1864.874876
  31
0.000000
   0
LINE
   5
80
 100
AcDbEntity
   8
0
   6
実線01
 100
AcDbLine
  10
-403.551564
  20
13472.575500
  30
0.000000
  11
2596.448436
  21
10472.575500
  31
0.000000
   0
LINE
   5
81
 100
AcDbEntity
   8
0
   6
実線01
 100
AcDbLine
  10
2596.448436
  20
13472.575500
  30
0.000000
  11
-403.551564
  21
10472.575500
  31
0.000000
   0
LINE
   5
82
 100
AcDbEntity
   8
0
   6
破線01
 100
AcDbLine
  10
646.448436
  20
14072.575500
  30
0.000000
  11
1546.448436
  21
14072.575500
  31
0.000000
   0
LINE
   5
83
 100
AcDbEntity
   8
0
   6
破線01
 100
AcDbLine
  10
1546.448436
  20
13472.575500
  30
0.000000
  11
1546.448436
  21
10472.575500
  31
0.000000
   0
LINE
   5
84
 100
AcDbEntity
   8
0
   6
破線01
 100
AcDbLine
  10
646.448436
  20
13472.575500
  30
0.000000
  11
646.448436
  21
10413.497315
  31
0.000000
   0
LINE
   5
85
 100
AcDbEntity
   8
0
   6
破線01
 100
AcDbLine
  10
4482.591052
  20
10293.902720
  30
0.000000
  11
4407.844431
  21
10204.206774
  31
0.000000
   0
LINE
   5
86
 100
AcDbEntity
   8
0
   6
一点鎖線01
 100
AcDbLine
  10
-403.551564
  20
11972.575500
  30
0.000000
  11
2596.448436
  21
11972.575500
  31
0.000000
   0
LINE
   5
87
 100
AcDbEntity
   8
0
   6
一点鎖線01
 100
AcDbLine
  10
1096.448436
  20
15972.575500
  30
0.000000
  11
1096.448436
  21
-15527.424500
  31
0.000000
   0
LINE
   5
88
 100
AcDbEntity
   8
0
   6
破線01
 100
AcDbLine
  10
-1918.776598
  20
-14184.596926
  30
0.000000
  11
12680.520728
  21
-14184.596926
  31
0.000000
   0
LINE
   5
89
 100
AcDbEntity
   8
0
   6
破線01
 100
AcDbLine
  10
2096.448436
  20
-13961.745060
  30
0.000000
  11
96.448436
  21
-13961.745060
  31
0.000000
   0
LINE
   5
8A
 100
AcDbEntity
   8
0
   6
破線01
 100
AcDbLine
  10
-10372.864380
  20
-13955.331001
  30
0.000000
  11
-8359.252503
  21
-13955.331001
  31
0.000000
   0
LINE
   5
8B
 100
AcDbEntity
   8
0
   6
破線01
 100
AcDbLine
  10
10556.007696
  20
-13961.745060
  30
0.000000
  11
12571.902060
  21
-13961.745060
  31
0.000000
   0
LINE
   5
8C
 100
AcDbEntity
   8
0
   6
破線01
 100
AcDbLine
  10
-3903.551564
  20
-6527.424500
  30
0.000000
  11
-3903.551564
  21
-9527.424500
  31
0.000000
   0
LINE
   5
8D
 100
AcDbEntity
   8
0
   6
破線01
 100
AcDbLine
  10
6096.448436
  20
-6527.424500
  30
0.000000
  11
6096.448436
  21
-9527.424500
  31
0.000000
   0
LINE
   5
8E
 100
AcDbEntity
   8
0
   6
破線01
 100
AcDbLine
  10
96.448436
  20
-7027.424500
  30
0.000000
  11
2096.448436
  21
-7027.424500
  31
0.000000
   0
LWPOLYLINE
   5
8F
 100
AcDbEntity
   8
0
   6
破線01
 100
AcDbPolyline
  90
4
  70
0
  43
0.000000
  38
0.000000
  10
496.448436
  20
-7027.424500
  10
196.448436
  20
-8027.424500
  10
1996.448436
  20
-8027.424500
  10
1696.448436
  20
-7027.424500
   0
LINE
   5
90
 100
AcDbEntity
   8
0
   6
破線01
 100
AcDbLine
  10
-8156.457461
  20
-9527.424500
  30
0.000000
  11
-6139.604178
  21
-9527.424500
  31
0.000000
   0
ENDBLK
   5
91
 100
AcDbEntity
   8
図面枠
 100
AcDbBlockEnd
   0
BLOCK
   5
92
 100
AcDbEntity
   8
図面枠
 100
AcDbBlockBegin
   2
NO_NAME_HATCH
  70
0
  10
0.000000
  20
0.000000
  30
0.000000
   1

   3
NO_NAME_HATCH
   0
ATTDEF
   5
93
 100
AcDbEntity
   8
0
 100
AcDbText
  10
0.000000
  20
0.000000
  30
0.000000
  40
2.500000
   1
no:name:HATCH
 100
AcDbAttributeDefinition
   3

   2
ISI_MICROGDS_OBJECT_NAME
  70
3
   0
LINE
   5
94
 100
AcDbEntity
   8
0
   6
DEFAULT
 100
AcDbLine
  10
-13379.148130
  20
-6547.347320
  30
0.000000
  11
-13719.741349
  21
-6547.347320
  31
0.000000
   0
LINE
   5
95
 100
AcDbEntity
   8
0
   6
DEFAULT
 100
AcDbLine
  10
-13214.868944
  20
-6297.347320
  30
0.000000
  11
-14100.191248
  21
-6297.347320
  31
0.000000
   0
LINE
   5
96
 100
AcDbEntity
   8
0
   6
DEFAULT
 100
AcDbLine
  10
-13050.589757
  20
-6047.347320
  30
0.000000
  11
-14480.641148
  21
-6047.347320
  31
0.000000
   0
LINE
   5
97
 100
AcDbEntity
   8
0
   6
DEFAULT
 100
AcDbLine
  10
-12886.310570
  20
-5797.347320
  30
0.000000
  11
-14861.091047
  21
-5797.347320
  31
0.000000
   0
LINE
   5
98
 100
AcDbEntity
   8
0
   6
DEFAULT
 100
AcDbLine
  10
-13056.395636
  20
-5547.347320
  30
0.000000
  11
-15241.540946
  21
-5547.347320
  31
0.000000
   0
LINE
   5
99
 100
AcDbEntity
   8
0
   6
DEFAULT
 100
AcDbLine
  10
-13436.845535
  20
-5297.347320
  30
0.000000
  11
-15621.990846
  21
-5297.347320
  31
0.000000
   0
LINE
   5
9A
 100
AcDbEntity
   8
0
   6
DEFAULT
 100
AcDbLine
  10
-13817.295435
  20
-5047.347320
  30
0.000000
  11
-16002.440745
  21
-5047.347320
  31
0.000000
   0
LINE
   5
9B
 100
AcDbEntity
   8
0
   6
DEFAULT
 100
AcDbLine
  10
-14197.745334
  20
-4797.347320
  30
0.000000
  11
-16382.890644
  21
-4797.347320
  31
0.000000
   0
LINE
   5
9C
 100
AcDbEntity
   8
0
   6
DEFAULT
 100
AcDbLine
  10
-14578.195233
  20
-4547.347320
  30
0.000000
  11
-16252.943197
  21
-4547.347320
  31
0.000000
   0
LINE
   5
9D
 100
AcDbEntity
   8
0
   6
DEFAULT
 100
AcDbLine
  10
-14958.645133
  20
-4297.347320
  30
0.000000
  11
-16088.664010
  21
-4297.347320
  31
0.000000
   0
LINE
   5
9E
 100
AcDbEntity
   8
0
   6
DEFAULT
 100
AcDbLine
  10
-15339.095032
  20
-4047.347320
  30
0.000000
  11
-15924.384823
  21
-4047.347320
  31
0.000000
   0
LINE
   5
9F
 100
AcDbEntity
   8
0
   6
DEFAULT
 100
AcDbLine
  10
-15719.544931
  20
-3797.347320
  30
0.000000
  11
-15760.105637
  21
-3797.347320
  31
0.000000
   0
ENDBLK
   5
A0
 100
AcDbEntity
   8
図面枠
 100
AcDbBlockEnd
   0
BLOCK
   5
A1
 100
AcDbEntity
   8
躯体
 100
AcDbBlockBegin
   2
NO_NAME_DIMCHAIN
  70
0
  10
0.000000
  20
0.000000
  30
0.000000
   1

   3
NO_NAME_DIMCHAIN
   0
ATTDEF
   5
A2
 100
AcDbEntity
   8
0
 100
AcDbText
  10
0.000000
  20
0.000000
  30
0.000000
  40
2.500000
   1
no:name:DIMCHAIN
 100
AcDbAttributeDefinition
   3

   2
ISI_MICROGDS_OBJECT_NAME
  70
3
   0
LINE
   5
A3
 100
AcDbEntity
   8
0
   6
BLANK
 100
AcDbLine
  10
96.448436
  20
1369.691968
  30
0.000000
  11
596.448436
  21
1369.691968
  31
0.000000
   0
LINE
   5
A4
 100
AcDbEntity
   8
0
   6
ポイント01
 100
AcDbLine
  10
96.448436
  20
1369.691968
  30
0.000000
  11
596.448436
  21
1369.691968
  31
0.000000
   0
LINE
   5
A5
 100
AcDbEntity
   8
0
   6
DEFAULT
 100
AcDbLine
  10
596.448436
  20
1269.691968
  30
0.000000
  11
596.448436
  21
4166.964291
  31
0.000000
   0
LINE
   5
A6
 100
AcDbEntity
   8
0
   6
DEFAULT
 100
AcDbLine
  10
96.448436
  20
1269.691968
  30
0.000000
  11
96.448436
  21
2370.846584
  31
0.000000
   0
TEXT
   5
A7
 100
AcDbEntity
   8
0
 100
AcDbText
  40
160.000000
   1
10
   7
ゴシック50
  10
221.448436
  20
1414.691968
  30
0.000000
  72
1
  11
346.448436
  21
1369.691968
  31
0.000000
 100
AcDbText
  73
1
   0
ENDBLK
   5
A8
 100
AcDbEntity
   8
躯体
 100
AcDbBlockEnd
   0
BLOCK
   5
A9
 100
AcDbEntity
   8
躯体
 100
AcDbBlockBegin
   2
NO_NAME_DIMCHAIN$0
  70
0
  10
0.000000
  20
0.000000
  30
0.000000
   1

   3
NO_NAME_DIMCHAIN$0
   0
ATTDEF
   5
AA
 100
AcDbEntity
   8
0
 100
AcDbText
  10
0.000000
  20
0.000000
  30
0.000000
  40
2.500000
   1
no:name:DIMCHAIN
 100
AcDbAttributeDefinition
   3

   2
ISI_MICROGDS_OBJECT_NAME
  70
3
   0
LINE
   5
AB
 100
AcDbEntity
   8
0
   6
BLANK
 100
AcDbLine
  10
1596.448436
  20
1369.691968
  30
0.000000
  11
2096.448436
  21
1369.691968
  31
0.000000
   0
LINE
   5
AC
 100
AcDbEntity
   8
0
   6
ポイント01
 100
AcDbLine
  10
1596.448436
  20
1369.691968
  30
0.000000
  11
2096.448436
  21
1369.691968
  31
0.000000
   0
LINE
   5
AD
 100
AcDbEntity
   8
0
   6
DEFAULT
 100
AcDbLine
  10
2096.448436
  20
1269.691968
  30
0.000000
  11
2096.448436
  21
2154.855910
  31
0.000000
   0
LINE
   5
AE
 100
AcDbEntity
   8
0
   6
DEFAULT
 100
AcDbLine
  10
1596.448436
  20
1269.691968
  30
0.000000
  11
1596.448436
  21
4453.410906
  31
0.000000
   0
TEXT
   5
AF
 100
AcDbEntity
   8
0
 100
AcDbText
  40
160.000000
   1
10
   7
ゴシック50
  10
1721.448436
  20
1414.691968
  30
0.000000
  72
1
  11
1846.448436
  21
1369.691968
  31
0.000000
 100
AcDbText
  73
1
   0
ENDBLK
   5
B0
 100
AcDbEntity
   8
躯体
 100
AcDbBlockEnd
   0
BLOCK
   5
B1
 100
AcDbEntity
   8
躯体
 100
AcDbBlockBegin
   2
NO_NAME_DIMCHAIN$1
  70
0
  10
0.000000
  20
0.000000
  30
0.000000
   1

   3
NO_NAME_DIMCHAIN$1
   0
ATTDEF
   5
B2
 100
AcDbEntity
   8
0
 100
AcDbText
  10
0.000000
  20
0.000000
  30
0.000000
  40
2.500000
   1
no:name:DIMCHAIN
 100
AcDbAttributeDefinition
   3

   2
ISI_MICROGDS_OBJECT_NAME
  70
3
   0
LINE
   5
B3
 100
AcDbEntity
   8
0
   6
BLANK
 100
AcDbLine
  10
-403.551564
  20
-830.533038
  30
0.000000
  11
2596.448436
  21
-830.533038
  31
0.000000
   0
LINE
   5
B4
 100
AcDbEntity
   8
0
   6
ポイント01
 100
AcDbLine
  10
-403.551564
  20
-830.533038
  30
0.000000
  11
2596.448436
  21
-830.533038
  31
0.000000
   0
TEXT
   5
B5
 100
AcDbEntity
   8
0
 100
AcDbText
  40
160.000000
   1
60
   7
ゴシック50
  10
971.448436
  20
-785.533038
  30
0.000000
  72
1
  11
1096.448436
  21
-830.533038
  31
0.000000
 100
AcDbText
  73
1
   0
ENDBLK
   5
B6
 100
AcDbEntity
   8
躯体
 100
AcDbBlockEnd
   0
BLOCK
   5
B7
 100
AcDbEntity
   8
躯体
 100
AcDbBlockBegin
   2
NO_NAME_DIMCHAIN$2
  70
0
  10
0.000000
  20
0.000000
  30
0.000000
   1

   3
NO_NAME_DIMCHAIN$2
   0
ATTDEF
   5
B8
 100
AcDbEntity
   8
0
 100
AcDbText
  10
0.000000
  20
0.000000
  30
0.000000
  40
2.500000
   1
no:name:DIMCHAIN
 100
AcDbAttributeDefinition
   3

   2
ISI_MICROGDS_OBJECT_NAME
  70
3
   0
TEXT
   5
B9
 100
AcDbEntity
   8
0
 100
AcDbText
  40
160.000000
   1
???
   7
ゴシック50
  10
-11964.924500
  20
16095.956949
  30
0.000000
  72
1
  11
-11777.424500
  21
16050.956949
  31
0.000000
 100
AcDbText
  73
1
   0
TEXT
   5
BA
 100
AcDbEntity
   8
0
 100
AcDbText
  40
160.000000
   1
???
   7
ゴシック50
  10
-714.924500
  20
16095.956949
  30
0.000000
  72
1
  11
-527.424500
  21
16050.956949
  31
0.000000
 100
AcDbText
  73
1
   0
TEXT
   5
BB
 100
AcDbEntity
   8
0
 100
AcDbText
  40
160.000000
   1
???
   7
ゴシック50
  10
9285.075500
  20
16095.956949
  30
0.000000
  72
1
  11
9472.575500
  21
16050.956949
  31
0.000000
 100
AcDbText
  73
1
   0
TEXT
   5
BC
 100
AcDbEntity
   8
0
 100
AcDbText
  40
160.000000
   1
???
   7
ゴシック50
  10
13785.075500
  20
16095.956949
  30
0.000000
  72
1
  11
13972.575500
  21
16050.956949
  31
0.000000
 100
AcDbText
  73
1
   0
LINE
   5
BD
 100
AcDbEntity
   8
0
   6
DEFAULT
 100
AcDbLine
  10
-8027.424500
  20
14033.746556
  30
0.000000
  11
-8027.424500
  21
11453.551564
  31
0.000000
   0
LINE
   5
BE
 100
AcDbEntity
   8
0
   6
DEFAULT
 100
AcDbLine
  10
-15527.424500
  20
14033.746556
  30
0.000000
  11
-15527.424500
  21
13959.852996
  31
0.000000
   0
LINE
   5
BF
 100
AcDbEntity
   8
0
   6
DEFAULT
 100
AcDbLine
  10
6972.575500
  20
14033.746556
  30
0.000000
  11
6972.575500
  21
461.661079
  31
0.000000
   0
LINE
   5
C0
 100
AcDbEntity
   8
0
   6
DEFAULT
 100
AcDbLine
  10
11972.575500
  20
14033.746556
  30
0.000000
  11
11972.575500
  21
997.868146
  31
0.000000
   0
LINE
   5
C1
 100
AcDbEntity
   8
0
   6
DEFAULT
 100
AcDbLine
  10
15972.575500
  20
14033.746556
  30
0.000000
  11
15972.575500
  21
-596.448436
  31
0.000000
   0
ENDBLK
   5
C2
 100
AcDbEntity
   8
躯体
 100
AcDbBlockEnd
   0
BLOCK
   5
C3
 100
AcDbEntity
   8
躯体
 100
AcDbBlockBegin
   2
NO_NAME_DIMCHAIN$3
  70
0
  10
0.000000
  20
0.000000
  30
0.000000
   1

   3
NO_NAME_DIMCHAIN$3
   0
ATTDEF
   5
C4
 100
AcDbEntity
   8
0
 100
AcDbText
  10
0.000000
  20
0.000000
  30
0.000000
  40
2.500000
   1
no:name:DIMCHAIN
 100
AcDbAttributeDefinition
   3

   2
ISI_MICROGDS_OBJECT_NAME
  70
3
   0
LINE
   5
C5
 100
AcDbEntity
   8
0
   6
BLANK
 100
AcDbLine
  10
-13903.551564
  20
-11239.154253
  30
0.000000
  11
-6403.551564
  21
-11239.154253
  31
0.000000
   0
LINE
   5
C6
 100
AcDbEntity
   8
0
   6
ポイント01
 100
AcDbLine
  10
-13903.551564
  20
-11239.154253
  30
0.000000
  11
-6403.551564
  21
-11239.154253
  31
0.000000
   0
LINE
   5
C7
 100
AcDbEntity
   8
0
   6
DEFAULT
 100
AcDbLine
  10
-6403.551564
  20
-11139.154253
  30
0.000000
  11
-6403.551564
  21
-13512.706376
  31
0.000000
   0
LINE
   5
C8
 100
AcDbEntity
   8
0
   6
DEFAULT
 100
AcDbLine
  10
-13903.551564
  20
-11139.154253
  30
0.000000
  11
-13903.551564
  21
-13911.745060
  31
0.000000
   0
TEXT
   5
C9
 100
AcDbEntity
   8
0
 100
AcDbText
  40
160.000000
   1
150
   7
ゴシック50
  10
-10341.051564
  20
-11194.154253
  30
0.000000
  72
1
  11
-10153.551564
  21
-11239.154253
  31
0.000000
 100
AcDbText
  73
1
   0
LINE
   5
CA
 100
AcDbEntity
   8
0
   6
BLANK
 100
AcDbLine
  10
-6403.551564
  20
-11239.154253
  30
0.000000
  11
1096.448436
  21
-11239.154253
  31
0.000000
   0
LINE
   5
CB
 100
AcDbEntity
   8
0
   6
ポイント01
 100
AcDbLine
  10
-6403.551564
  20
-11239.154253
  30
0.000000
  11
1096.448436
  21
-11239.154253
  31
0.000000
   0
LINE
   5
CC
 100
AcDbEntity
   8
0
   6
DEFAULT
 100
AcDbLine
  10
1096.448436
  20
-11139.154253
  30
0.000000
  11
1096.448436
  21
-13171.007535
  31
0.000000
   0
TEXT
   5
CD
 100
AcDbEntity
   8
0
 100
AcDbText
  40
160.000000
   1
150
   7
ゴシック50
  10
-2841.051564
  20
-11194.154253
  30
0.000000
  72
1
  11
-2653.551564
  21
-11239.154253
  31
0.000000
 100
AcDbText
  73
1
   0
LINE
   5
CE
 100
AcDbEntity
   8
0
   6
BLANK
 100
AcDbLine
  10
1096.448436
  20
-11239.154253
  30
0.000000
  11
8596.448436
  21
-11239.154253
  31
0.000000
   0
LINE
   5
CF
 100
AcDbEntity
   8
0
   6
ポイント01
 100
AcDbLine
  10
1096.448436
  20
-11239.154253
  30
0.000000
  11
8596.448436
  21
-11239.154253
  31
0.000000
   0
LINE
   5
D0
 100
AcDbEntity
   8
0
   6
DEFAULT
 100
AcDbLine
  10
8596.448436
  20
-11139.154253
  30
0.000000
  11
8596.448436
  21
-13239.347303
  31
0.000000
   0
TEXT
   5
D1
 100
AcDbEntity
   8
0
 100
AcDbText
  40
160.000000
   1
150
   7
ゴシック50
  10
4658.948436
  20
-11194.154253
  30
0.000000
  72
1
  11
4846.448436
  21
-11239.154253
  31
0.000000
 100
AcDbText
  73
1
   0
ENDBLK
   5
D2
 100
AcDbEntity
   8
躯体
 100
AcDbBlockEnd
   0
BLOCK
   5
D3
 100
AcDbEntity
   8
躯体
 100
AcDbBlockBegin
   2
NO_NAME_DIMCHAIN$4
  70
0
  10
0.000000
  20
0.000000
  30
0.000000
   1

   3
NO_NAME_DIMCHAIN$4
   0
ATTDEF
   5
D4
 100
AcDbEntity
   8
0
 100
AcDbText
  10
0.000000
  20
0.000000
  30
0.000000
  40
2.500000
   1
no:name:DIMCHAIN
 100
AcDbAttributeDefinition
   3

   2
ISI_MICROGDS_OBJECT_NAME
  70
3
   0
LINE
   5
D5
 100
AcDbEntity
   8
0
   6
BLANK
 100
AcDbLine
  10
-11403.551564
  20
-4268.497882
  30
0.000000
  11
-6403.551564
  21
-4268.497882
  31
0.000000
   0
LINE
   5
D6
 100
AcDbEntity
   8
0
   6
ポイント01
 100
AcDbLine
  10
-11403.551564
  20
-4268.497882
  30
0.000000
  11
-6403.551564
  21
-4268.497882
  31
0.000000
   0
LINE
   5
D7
 100
AcDbEntity
   8
0
   6
DEFAULT
 100
AcDbLine
  10
-6403.551564
  20
-4168.497882
  30
0.000000
  11
-6403.551564
  21
-10642.436106
  31
0.000000
   0
LINE
   5
D8
 100
AcDbEntity
   8
0
   6
DEFAULT
 100
AcDbLine
  10
-11403.551564
  20
-4168.497882
  30
0.000000
  11
-11403.551564
  21
-6477.424500
  31
0.000000
   0
TEXT
   5
D9
 100
AcDbEntity
   8
0
 100
AcDbText
  40
160.000000
   1
100
   7
ゴシック50
  10
-9091.051564
  20
-4223.497882
  30
0.000000
  72
1
  11
-8903.551564
  21
-4268.497882
  31
0.000000
 100
AcDbText
  73
1
   0
ENDBLK
   5
DA
 100
AcDbEntity
   8
躯体
 100
AcDbBlockEnd
   0
BLOCK
   5
DB
 100
AcDbEntity
   8
躯体
 100
AcDbBlockBegin
   2
NO_NAME_DIMCHAIN$5
  70
0
  10
0.000000
  20
0.000000
  30
0.000000
   1

   3
NO_NAME_DIMCHAIN$5
   0
ATTDEF
   5
DC
 100
AcDbEntity
   8
0
 100
AcDbText
  10
0.000000
  20
0.000000
  30
0.000000
  40
2.500000
   1
no:name:DIMCHAIN
 100
AcDbAttributeDefinition
   3

   2
ISI_MICROGDS_OBJECT_NAME
  70
3
   0
LINE
   5
DD
 100
AcDbEntity
   8
0
   6
BLANK
 100
AcDbLine
  10
8596.448436
  20
-4268.497882
  30
0.000000
  11
13596.448436
  21
-4268.497882
  31
0.000000
   0
LINE
   5
DE
 100
AcDbEntity
   8
0
   6
ポイント01
 100
AcDbLine
  10
8596.448436
  20
-4268.497882
  30
0.000000
  11
13596.448436
  21
-4268.497882
  31
0.000000
   0
LINE
   5
DF
 100
AcDbEntity
   8
0
   6
DEFAULT
 100
AcDbLine
  10
13596.805463
  20
-4168.319190
  30
0.000000
  11
13596.805463
  21
-6477.245808
  31
0.000000
   0
LINE
   5
E0
 100
AcDbEntity
   8
0
   6
DEFAULT
 100
AcDbLine
  10
8596.448436
  20
-4168.497882
  30
0.000000
  11
8596.448436
  21
-11089.154253
  31
0.000000
   0
TEXT
   5
E1
 100
AcDbEntity
   8
0
 100
AcDbText
  40
160.000000
   1
100
   7
ゴシック50
  10
10908.948436
  20
-4223.497882
  30
0.000000
  72
1
  11
11096.448436
  21
-4268.497882
  31
0.000000
 100
AcDbText
  73
1
   0
ENDBLK
   5
E2
 100
AcDbEntity
   8
躯体
 100
AcDbBlockEnd
   0
BLOCK
   5
E3
 100
AcDbEntity
   8
躯体
 100
AcDbBlockBegin
   2
NO_NAME_DIMCHAIN$6
  70
0
  10
0.000000
  20
0.000000
  30
0.000000
   1

   3
NO_NAME_DIMCHAIN$6
   0
ATTDEF
   5
E4
 100
AcDbEntity
   8
0
 100
AcDbText
  10
0.000000
  20
0.000000
  30
0.000000
  40
2.500000
   1
no:name:DIMCHAIN
 100
AcDbAttributeDefinition
   3

   2
ISI_MICROGDS_OBJECT_NAME
  70
3
   0
LINE
   5
E5
 100
AcDbEntity
   8
0
   6
BLANK
 100
AcDbLine
  10
96.448436
  20
-3693.697390
  30
0.000000
  11
2096.448436
  21
-3693.697390
  31
0.000000
   0
LINE
   5
E6
 100
AcDbEntity
   8
0
   6
ポイント01
 100
AcDbLine
  10
96.448436
  20
-3693.697390
  30
0.000000
  11
2096.448436
  21
-3693.697390
  31
0.000000
   0
LINE
   5
E7
 100
AcDbEntity
   8
0
   6
DEFAULT
 100
AcDbLine
  10
2096.448436
  20
-3593.697390
  30
0.000000
  11
2096.448436
  21
-3773.335770
  31
0.000000
   0
TEXT
   5
E8
 100
AcDbEntity
   8
0
 100
AcDbText
  40
160.000000
   1
40
   7
ゴシック50
  10
971.448436
  20
-3648.697390
  30
0.000000
  72
1
  11
1096.448436
  21
-3693.697390
  31
0.000000
 100
AcDbText
  73
1
   0
ENDBLK
   5
E9
 100
AcDbEntity
   8
躯体
 100
AcDbBlockEnd
   0
BLOCK
   5
EA
 100
AcDbEntity
   8
躯体
 100
AcDbBlockBegin
   2
NO_NAME_DIMCHAIN$7
  70
0
  10
0.000000
  20
0.000000
  30
0.000000
   1

   3
NO_NAME_DIMCHAIN$7
   0
ATTDEF
   5
EB
 100
AcDbEntity
   8
0
 100
AcDbText
  10
0.000000
  20
0.000000
  30
0.000000
  40
2.500000
   1
no:name:DIMCHAIN
 100
AcDbAttributeDefinition
   3

   2
ISI_MICROGDS_OBJECT_NAME
  70
3
   0
LINE
   5
EC
 100
AcDbEntity
   8
0
   6
BLANK
 100
AcDbLine
  10
-8027.424500
  20
1071.419371
  30
0.000000
  11
-7027.424500
  21
1071.419371
  31
0.000000
   0
LINE
   5
ED
 100
AcDbEntity
   8
0
   6
ポイント01
 100
AcDbLine
  10
-8027.424500
  20
1071.419371
  30
0.000000
  11
-7027.424500
  21
1071.419371
  31
0.000000
   0
LINE
   5
EE
 100
AcDbEntity
   8
0
   6
DEFAULT
 100
AcDbLine
  10
-7027.424500
  20
1171.419371
  30
0.000000
  11
-7027.424500
  21
453.551564
  31
0.000000
   0
TEXT
   5
EF
 100
AcDbEntity
   8
0
 100
AcDbText
  40
160.000000
   1
20
   7
ゴシック50
  10
-7652.424500
  20
1116.419371
  30
0.000000
  72
1
  11
-7527.424500
  21
1071.419371
  31
0.000000
 100
AcDbText
  73
1
   0
LINE
   5
F0
 100
AcDbEntity
   8
0
   6
BLANK
 100
AcDbLine
  10
-7027.424500
  20
1071.419371
  30
0.000000
  11
-6527.424500
  21
1071.419371
  31
0.000000
   0
LINE
   5
F1
 100
AcDbEntity
   8
0
   6
ポイント01
 100
AcDbLine
  10
-7027.424500
  20
1071.419371
  30
0.000000
  11
-6527.424500
  21
1071.419371
  31
0.000000
   0
LINE
   5
F2
 100
AcDbEntity
   8
0
   6
DEFAULT
 100
AcDbLine
  10
-6527.424500
  20
1171.419371
  30
0.000000
  11
-6527.424500
  21
875.106449
  31
0.000000
   0
TEXT
   5
F3
 100
AcDbEntity
   8
0
 100
AcDbText
  40
160.000000
   1
10
   7
ゴシック50
  10
-6902.424500
  20
1116.419371
  30
0.000000
  72
1
  11
-6777.424500
  21
1071.419371
  31
0.000000
 100
AcDbText
  73
1
   0
ENDBLK
   5
F4
 100
AcDbEntity
   8
躯体
 100
AcDbBlockEnd
   0
BLOCK
   5
F5
 100
AcDbEntity
   8
躯体
 100
AcDbBlockBegin
   2
NO_NAME_DIMCHAIN$8
  70
0
  10
0.000000
  20
0.000000
  30
0.000000
   1

   3
NO_NAME_DIMCHAIN$8
   0
ATTDEF
   5
F6
 100
AcDbEntity
   8
0
 100
AcDbText
  10
0.000000
  20
0.000000
  30
0.000000
  40
2.500000
   1
no:name:DIMCHAIN
 100
AcDbAttributeDefinition
   3

   2
ISI_MICROGDS_OBJECT_NAME
  70
3
   0
LINE
   5
F7
 100
AcDbEntity
   8
0
   6
BLANK
 100
AcDbLine
  10
-9527.424500
  20
-4282.645732
  30
0.000000
  11
-6527.424500
  21
-4282.645732
  31
0.000000
   0
LINE
   5
F8
 100
AcDbEntity
   8
0
   6
ポイント01
 100
AcDbLine
  10
-9527.424500
  20
-4282.645732
  30
0.000000
  11
-6527.424500
  21
-4282.645732
  31
0.000000
   0
LINE
   5
F9
 100
AcDbEntity
   8
0
   6
DEFAULT
 100
AcDbLine
  10
-6527.424500
  20
-4382.645732
  30
0.000000
  11
-6527.424500
  21
-4203.007352
  31
0.000000
   0
TEXT
   5
FA
 100
AcDbEntity
   8
0
 100
AcDbText
  40
160.000000
   1
60
   7
ゴシック50
  10
-8152.424500
  20
-4237.645732
  30
0.000000
  72
1
  11
-8027.424500
  21
-4282.645732
  31
0.000000
 100
AcDbText
  73
1
   0
ENDBLK
   5
FB
 100
AcDbEntity
   8
躯体
 100
AcDbBlockEnd
   0
BLOCK
   5
FC
 100
AcDbEntity
   8
躯体
 100
AcDbBlockBegin
   2
NO_NAME_DIMCHAIN$9
  70
0
  10
0.000000
  20
0.000000
  30
0.000000
   1

   3
NO_NAME_DIMCHAIN$9
   0
ATTDEF
   5
FD
 100
AcDbEntity
   8
0
 100
AcDbText
  10
0.000000
  20
0.000000
  30
0.000000
  40
2.500000
   1
no:name:DIMCHAIN
 100
AcDbAttributeDefinition
   3

   2
ISI_MICROGDS_OBJECT_NAME
  70
3
   0
LINE
   5
FE
 100
AcDbEntity
   8
0
   6
BLANK
 100
AcDbLine
  10
10472.575500
  20
1347.504245
  30
0.000000
  11
13472.575500
  21
1347.504245
  31
0.000000
   0
LINE
   5
FF
 100
AcDbEntity
   8
0
   6
ポイント01
 100
AcDbLine
  10
10472.575500
  20
1347.504245
  30
0.000000
  11
13472.575500
  21
1347.504245
  31
0.000000
   0
LINE
   5
100
 100
AcDbEntity
   8
0
   6
DEFAULT
 100
AcDbLine
  10
13472.575500
  20
1447.504245
  30
0.000000
  11
13472.575500
  21
867.590431
  31
0.000000
   0
LINE
   5
101
 100
AcDbEntity
   8
0
   6
DEFAULT
 100
AcDbLine
  10
10472.575500
  20
1447.504245
  30
0.000000
  11
10472.575500
  21
453.551564
  31
0.000000
   0
TEXT
   5
102
 100
AcDbEntity
   8
0
 100
AcDbText
  40
160.000000
   1
60
   7
ゴシック50
  10
11847.575500
  20
1392.504245
  30
0.000000
  72
1
  11
11972.575500
  21
1347.504245
  31
0.000000
 100
AcDbText
  73
1
   0
ENDBLK
   5
103
 100
AcDbEntity
   8
躯体
 100
AcDbBlockEnd
   0
BLOCK
   5
104
 100
AcDbEntity
   8
躯体
 100
AcDbBlockBegin
   2
NO_NAME_DIMCHAIN$10
  70
0
  10
0.000000
  20
0.000000
  30
0.000000
   1

   3
NO_NAME_DIMCHAIN$10
   0
ATTDEF
   5
105
 100
AcDbEntity
   8
0
 100
AcDbText
  10
0.000000
  20
0.000000
  30
0.000000
  40
2.500000
   1
no:name:DIMCHAIN
 100
AcDbAttributeDefinition
   3

   2
ISI_MICROGDS_OBJECT_NAME
  70
3
   0
LINE
   5
106
 100
AcDbEntity
   8
0
   6
BLANK
 100
AcDbLine
  10
13472.575500
  20
3881.154665
  30
0.000000
  11
14072.575500
  21
3881.154665
  31
0.000000
   0
LINE
   5
107
 100
AcDbEntity
   8
0
   6
ポイント01
 100
AcDbLine
  10
13472.575500
  20
3881.154665
  30
0.000000
  11
14072.575500
  21
3881.154665
  31
0.000000
   0
LINE
   5
108
 100
AcDbEntity
   8
0
   6
DEFAULT
 100
AcDbLine
  10
14072.575500
  20
3981.154665
  30
0.000000
  11
14072.575500
  21
2703.551564
  31
0.000000
   0
LINE
   5
109
 100
AcDbEntity
   8
0
   6
DEFAULT
 100
AcDbLine
  10
13472.575500
  20
3981.154665
  30
0.000000
  11
13472.575500
  21
2703.551564
  31
0.000000
   0
TEXT
   5
10A
 100
AcDbEntity
   8
0
 100
AcDbText
  40
160.000000
   1
12
   7
ゴシック50
  10
13647.575500
  20
3926.154665
  30
0.000000
  72
1
  11
13772.575500
  21
3881.154665
  31
0.000000
 100
AcDbText
  73
1
   0
ENDBLK
   5
10B
 100
AcDbEntity
   8
躯体
 100
AcDbBlockEnd
   0
BLOCK
   5
10C
 100
AcDbEntity
   8
躯体
 100
AcDbBlockBegin
   2
NO_NAME_DIMCHAIN$11
  70
0
  10
0.000000
  20
0.000000
  30
0.000000
   1

   3
NO_NAME_DIMCHAIN$11
   0
ATTDEF
   5
10D
 100
AcDbEntity
   8
0
 100
AcDbText
  10
0.000000
  20
0.000000
  30
0.000000
  40
2.500000
   1
no:name:DIMCHAIN
 100
AcDbAttributeDefinition
   3

   2
ISI_MICROGDS_OBJECT_NAME
  70
3
   0
LINE
   5
10E
 100
AcDbEntity
   8
0
   6
BLANK
 100
AcDbLine
  10
-403.551564
  20
10025.808150
  30
0.000000
  11
2596.448436
  21
10025.808150
  31
0.000000
   0
LINE
   5
10F
 100
AcDbEntity
   8
0
   6
ポイント01
 100
AcDbLine
  10
-403.551564
  20
10025.808150
  30
0.000000
  11
2596.448436
  21
10025.808150
  31
0.000000
   0
TEXT
   5
110
 100
AcDbEntity
   8
0
 100
AcDbText
  40
160.000000
   1
60
   7
ゴシック50
  10
971.448436
  20
10070.808150
  30
0.000000
  72
1
  11
1096.448436
  21
10025.808150
  31
0.000000
 100
AcDbText
  73
1
   0
ENDBLK
   5
111
 100
AcDbEntity
   8
躯体
 100
AcDbBlockEnd
   0
BLOCK
   5
112
 100
AcDbEntity
   8
躯体
 100
AcDbBlockBegin
   2
NO_NAME_DIMCHAIN$12
  70
0
  10
0.000000
  20
0.000000
  30
0.000000
   1

   3
NO_NAME_DIMCHAIN$12
   0
ATTDEF
   5
113
 100
AcDbEntity
   8
0
 100
AcDbText
  10
0.000000
  20
0.000000
  30
0.000000
  40
2.500000
   1
no:name:DIMCHAIN
 100
AcDbAttributeDefinition
   3

   2
ISI_MICROGDS_OBJECT_NAME
  70
3
   0
LINE
   5
114
 100
AcDbEntity
   8
0
   6
BLANK
 100
AcDbLine
  10
646.448436
  20
15192.467831
  30
0.000000
  11
1546.448436
  21
15192.467831
  31
0.000000
   0
LINE
   5
115
 100
AcDbEntity
   8
0
   6
ポイント01
 100
AcDbLine
  10
646.448436
  20
15192.467831
  30
0.000000
  11
1546.448436
  21
15192.467831
  31
0.000000
   0
TEXT
   5
116
 100
AcDbEntity
   8
0
 100
AcDbText
  40
160.000000
   1
18
   7
ゴシック50
  10
971.448436
  20
15237.467831
  30
0.000000
  72
1
  11
1096.448436
  21
15192.467831
  31
0.000000
 100
AcDbText
  73
1
   0
ENDBLK
   5
117
 100
AcDbEntity
   8
躯体
 100
AcDbBlockEnd
   0
BLOCK
   5
118
 100
AcDbEntity
   8
躯体
 100
AcDbBlockBegin
   2
NO_NAME_DIMCHAIN$13
  70
0
  10
0.000000
  20
0.000000
  30
0.000000
   1

   3
NO_NAME_DIMCHAIN$13
   0
ATTDEF
   5
119
 100
AcDbEntity
   8
0
 100
AcDbText
  10
0.000000
  20
0.000000
  30
0.000000
  40
2.500000
   1
no:name:DIMCHAIN
 100
AcDbAttributeDefinition
   3

   2
ISI_MICROGDS_OBJECT_NAME
  70
3
   0
LINE
   5
11A
 100
AcDbEntity
   8
0
   6
BLANK
 100
AcDbLine
  10
-2653.551564
  20
16848.448498
  30
0.000000
  11
4846.448436
  21
16848.448498
  31
0.000000
   0
LINE
   5
11B
 100
AcDbEntity
   8
0
   6
ポイント01
 100
AcDbLine
  10
-2653.551564
  20
16848.448498
  30
0.000000
  11
4846.448436
  21
16848.448498
  31
0.000000
   0
LINE
   5
11C
 100
AcDbEntity
   8
0
   6
DEFAULT
 100
AcDbLine
  10
4846.448436
  20
16948.448498
  30
0.000000
  11
4846.448436
  21
14122.575500
  31
0.000000
   0
LINE
   5
11D
 100
AcDbEntity
   8
0
   6
DEFAULT
 100
AcDbLine
  10
-2653.551564
  20
16948.448498
  30
0.000000
  11
-2653.551564
  21
14122.575500
  31
0.000000
   0
TEXT
   5
11E
 100
AcDbEntity
   8
0
 100
AcDbText
  40
160.000000
   1
150
   7
ゴシック50
  10
908.948436
  20
16893.448498
  30
0.000000
  72
1
  11
1096.448436
  21
16848.448498
  31
0.000000
 100
AcDbText
  73
1
   0
ENDBLK
   5
11F
 100
AcDbEntity
   8
躯体
 100
AcDbBlockEnd
   0
BLOCK
   5
120
 100
AcDbEntity
   8
躯体
 100
AcDbBlockBegin
   2
NO_NAME_DIMCHAIN$14
  70
0
  10
0.000000
  20
0.000000
  30
0.000000
   1

   3
NO_NAME_DIMCHAIN$14
   0
ATTDEF
   5
121
 100
AcDbEntity
   8
0
 100
AcDbText
  10
0.000000
  20
0.000000
  30
0.000000
  40
2.500000
   1
no:name:DIMCHAIN
 100
AcDbAttributeDefinition
   3

   2
ISI_MICROGDS_OBJECT_NAME
  70
3
   0
LINE
   5
122
 100
AcDbEntity
   8
0
   6
BLANK
 100
AcDbLine
  10
-12946.008682
  20
11869.942247
  30
0.000000
  11
-11746.201215
  21
11869.942247
  31
0.000000
   0
LINE
   5
123
 100
AcDbEntity
   8
0
   6
ポイント01
 100
AcDbLine
  10
-12946.008682
  20
11869.942247
  30
0.000000
  11
-11746.201215
  21
11869.942247
  31
0.000000
   0
LINE
   5
124
 100
AcDbEntity
   8
0
   6
DEFAULT
 100
AcDbLine
  10
-11746.201215
  20
11969.942247
  30
0.000000
  11
-11746.201215
  21
11165.336096
  31
0.000000
   0
LINE
   5
125
 100
AcDbEntity
   8
0
   6
DEFAULT
 100
AcDbLine
  10
-12946.008682
  20
11969.942247
  30
0.000000
  11
-12946.008682
  21
11208.294111
  31
0.000000
   0
TEXT
   5
126
 100
AcDbEntity
   8
0
 100
AcDbText
  40
160.000000
   1
24
   7
ゴシック50
  10
-12471.104949
  20
11914.942247
  30
0.000000
  72
1
  11
-12346.104949
  21
11869.942247
  31
0.000000
 100
AcDbText
  73
1
   0
ENDBLK
   5
127
 100
AcDbEntity
   8
躯体
 100
AcDbBlockEnd
   0
BLOCK
   5
128
 100
AcDbEntity
   8
躯体
 100
AcDbBlockBegin
   2
NO_NAME_DIMCHAIN$15
  70
0
  10
0.000000
  20
0.000000
  30
0.000000
   1

   3
NO_NAME_DIMCHAIN$15
   0
ATTDEF
   5
129
 100
AcDbEntity
   8
0
 100
AcDbText
  10
0.000000
  20
0.000000
  30
0.000000
  40
2.500000
   1
no:name:DIMCHAIN
 100
AcDbAttributeDefinition
   3

   2
ISI_MICROGDS_OBJECT_NAME
  70
3
   0
LINE
   5
12A
 100
AcDbEntity
   8
0
   6
BLANK
 100
AcDbLine
  10
-11137.922928
  20
-9421.607784
  30
0.000000
  11
-8134.667849
  21
-9421.607784
  31
0.000000
   0
LINE
   5
12B
 100
AcDbEntity
   8
0
   6
ポイント01
 100
AcDbLine
  10
-11137.922928
  20
-9421.607784
  30
0.000000
  11
-8134.667849
  21
-9421.607784
  31
0.000000
   0
LINE
   5
12C
 100
AcDbEntity
   8
0
   6
DEFAULT
 100
AcDbLine
  10
-8134.667849
  20
-9321.607784
  30
0.000000
  11
-8134.667849
  21
-9779.781132
  31
0.000000
   0
LINE
   5
12D
 100
AcDbEntity
   8
0
   6
DEFAULT
 100
AcDbLine
  10
-11137.922928
  20
-9321.607784
  30
0.000000
  11
-11137.922928
  21
-9602.892679
  31
0.000000
   0
TEXT
   5
12E
 100
AcDbEntity
   8
0
 100
AcDbText
  40
160.000000
   1
60
   7
ゴシック50
  10
-9761.295389
  20
-9376.607784
  30
0.000000
  72
1
  11
-9636.295389
  21
-9421.607784
  31
0.000000
 100
AcDbText
  73
1
   0
ENDBLK
   5
12F
 100
AcDbEntity
   8
躯体
 100
AcDbBlockEnd
   0
BLOCK
   5
130
 100
AcDbEntity
   8
躯体
 100
AcDbBlockBegin
   2
NO_NAME_DIMCHAIN$16
  70
0
  10
0.000000
  20
0.000000
  30
0.000000
   1

   3
NO_NAME_DIMCHAIN$16
   0
ATTDEF
   5
131
 100
AcDbEntity
   8
0
 100
AcDbText
  10
0.000000
  20
0.000000
  30
0.000000
  40
2.500000
   1
no:name:DIMCHAIN
 100
AcDbAttributeDefinition
   3

   2
ISI_MICROGDS_OBJECT_NAME
  70
3
   0
LINE
   5
132
 100
AcDbEntity
   8
0
   6
BLANK
 100
AcDbLine
  10
-11158.294111
  20
-13506.973391
  30
0.000000
  11
-7658.394271
  21
-13506.973391
  31
0.000000
   0
LINE
   5
133
 100
AcDbEntity
   8
0
   6
ポイント01
 100
AcDbLine
  10
-11158.294111
  20
-13506.973391
  30
0.000000
  11
-7658.394271
  21
-13506.973391
  31
0.000000
   0
LINE
   5
134
 100
AcDbEntity
   8
0
   6
DEFAULT
 100
AcDbLine
  10
-7658.394271
  20
-13606.973391
  30
0.000000
  11
-7658.394271
  21
-13021.026647
  31
0.000000
   0
LINE
   5
135
 100
AcDbEntity
   8
0
   6
DEFAULT
 100
AcDbLine
  10
-11158.294111
  20
-13606.973391
  30
0.000000
  11
-11158.294111
  21
-12996.008682
  31
0.000000
   0
TEXT
   5
136
 100
AcDbEntity
   8
0
 100
AcDbText
  40
160.000000
   1
70
   7
ゴシック50
  10
-9533.344191
  20
-13461.973391
  30
0.000000
  72
1
  11
-9408.344191
  21
-13506.973391
  31
0.000000
 100
AcDbText
  73
1
   0
ENDBLK
   5
137
 100
AcDbEntity
   8
躯体
 100
AcDbBlockEnd
   0
BLOCK
   5
138
 100
AcDbEntity
   8
躯体
 100
AcDbBlockBegin
   2
NO_NAME_DIMCHAIN$17
  70
0
  10
0.000000
  20
0.000000
  30
0.000000
   1

   3
NO_NAME_DIMCHAIN$17
   0
ATTDEF
   5
139
 100
AcDbEntity
   8
0
 100
AcDbText
  10
0.000000
  20
0.000000
  30
0.000000
  40
2.500000
   1
no:name:DIMCHAIN
 100
AcDbAttributeDefinition
   3

   2
ISI_MICROGDS_OBJECT_NAME
  70
3
   0
LINE
   5
13A
 100
AcDbEntity
   8
0
   6
BLANK
 100
AcDbLine
  10
3158.199497
  20
-5376.672288
  30
0.000000
  11
4956.811035
  21
-5376.672288
  31
0.000000
   0
LINE
   5
13B
 100
AcDbEntity
   8
0
   6
ポイント01
 100
AcDbLine
  10
3158.199497
  20
-5376.672288
  30
0.000000
  11
4956.811035
  21
-5376.672288
  31
0.000000
   0
LINE
   5
13C
 100
AcDbEntity
   8
0
   6
DEFAULT
 100
AcDbLine
  10
4956.811035
  20
-5276.672288
  30
0.000000
  11
4956.811035
  21
-5500.912155
  31
0.000000
   0
TEXT
   5
13D
 100
AcDbEntity
   8
0
 100
AcDbText
  40
160.000000
   1
36
   7
ゴシック50
  10
3932.505266
  20
-5331.672288
  30
0.000000
  72
1
  11
4057.505266
  21
-5376.672288
  31
0.000000
 100
AcDbText
  73
1
   0
ENDBLK
   5
13E
 100
AcDbEntity
   8
躯体
 100
AcDbBlockEnd
   0
BLOCK
   5
13F
 100
AcDbEntity
   8
躯体
 100
AcDbBlockBegin
   2
NO_NAME_DIMCHAIN$18
  70
0
  10
0.000000
  20
0.000000
  30
0.000000
   1

   3
NO_NAME_DIMCHAIN$18
   0
ATTDEF
   5
140
 100
AcDbEntity
   8
0
 100
AcDbText
  10
0.000000
  20
0.000000
  30
0.000000
  40
2.500000
   1
no:name:DIMCHAIN
 100
AcDbAttributeDefinition
   3

   2
ISI_MICROGDS_OBJECT_NAME
  70
3
   0
LINE
   5
141
 100
AcDbEntity
   8
0
   6
BLANK
 100
AcDbLine
  10
-3013.482928
  20
-3033.386471
  30
0.000000
  11
-1212.584830
  21
-3033.386471
  31
0.000000
   0
LINE
   5
142
 100
AcDbEntity
   8
0
   6
ポイント01
 100
AcDbLine
  10
-3013.482928
  20
-3033.386471
  30
0.000000
  11
-1212.584830
  21
-3033.386471
  31
0.000000
   0
LINE
   5
143
 100
AcDbEntity
   8
0
   6
DEFAULT
 100
AcDbLine
  10
-1212.584830
  20
-2933.386471
  30
0.000000
  11
-1212.584830
  21
-3241.631890
  31
0.000000
   0
LINE
   5
144
 100
AcDbEntity
   8
0
   6
DEFAULT
 100
AcDbLine
  10
-3013.482928
  20
-2933.386471
  30
0.000000
  11
-3013.482928
  21
-3113.161245
  31
0.000000
   0
TEXT
   5
145
 100
AcDbEntity
   8
0
 100
AcDbText
  40
160.000000
   1
36
   7
ゴシック50
  10
-2238.033879
  20
-2988.386471
  30
0.000000
  72
1
  11
-2113.033879
  21
-3033.386471
  31
0.000000
 100
AcDbText
  73
1
   0
ENDBLK
   5
146
 100
AcDbEntity
   8
躯体
 100
AcDbBlockEnd
   0
BLOCK
   5
147
 100
AcDbEntity
   8
躯体
 100
AcDbBlockBegin
   2
NO_NAME_DIMCHAIN$19
  70
0
  10
0.000000
  20
0.000000
  30
0.000000
   1

   3
NO_NAME_DIMCHAIN$19
   0
ATTDEF
   5
148
 100
AcDbEntity
   8
0
 100
AcDbText
  10
0.000000
  20
0.000000
  30
0.000000
  40
2.500000
   1
no:name:DIMCHAIN
 100
AcDbAttributeDefinition
   3

   2
ISI_MICROGDS_OBJECT_NAME
  70
3
   0
LINE
   5
149
 100
AcDbEntity
   8
0
   6
BLANK
 100
AcDbLine
  10
496.448436
  20
-6806.412473
  30
0.000000
  11
1696.448436
  21
-6806.412473
  31
0.000000
   0
LINE
   5
14A
 100
AcDbEntity
   8
0
   6
ポイント01
 100
AcDbLine
  10
496.448436
  20
-6806.412473
  30
0.000000
  11
1696.448436
  21
-6806.412473
  31
0.000000
   0
LINE
   5
14B
 100
AcDbEntity
   8
0
   6
DEFAULT
 100
AcDbLine
  10
1696.448436
  20
-6706.412473
  30
0.000000
  11
1696.448436
  21
-6977.424500
  31
0.000000
   0
LINE
   5
14C
 100
AcDbEntity
   8
0
   6
DEFAULT
 100
AcDbLine
  10
496.448436
  20
-6706.412473
  30
0.000000
  11
496.448436
  21
-6977.424500
  31
0.000000
   0
TEXT
   5
14D
 100
AcDbEntity
   8
0
 100
AcDbText
  40
160.000000
   1
24
   7
ゴシック50
  10
971.448436
  20
-6761.412473
  30
0.000000
  72
1
  11
1096.448436
  21
-6806.412473
  31
0.000000
 100
AcDbText
  73
1
   0
ENDBLK
   5
14E
 100
AcDbEntity
   8
躯体
 100
AcDbBlockEnd
   0
BLOCK
   5
14F
 100
AcDbEntity
   8
躯体
 100
AcDbBlockBegin
   2
NO_NAME_DIMCHAIN$20
  70
0
  10
0.000000
  20
0.000000
  30
0.000000
   1

   3
NO_NAME_DIMCHAIN$20
   0
ATTDEF
   5
150
 100
AcDbEntity
   8
0
 100
AcDbText
  10
0.000000
  20
0.000000
  30
0.000000
  40
2.500000
   1
no:name:DIMCHAIN
 100
AcDbAttributeDefinition
   3

   2
ISI_MICROGDS_OBJECT_NAME
  70
3
   0
LINE
   5
151
 100
AcDbEntity
   8
0
   6
BLANK
 100
AcDbLine
  10
196.448436
  20
-8287.384245
  30
0.000000
  11
1996.448436
  21
-8287.384245
  31
0.000000
   0
LINE
   5
152
 100
AcDbEntity
   8
0
   6
ポイント01
 100
AcDbLine
  10
196.448436
  20
-8287.384245
  30
0.000000
  11
1996.448436
  21
-8287.384245
  31
0.000000
   0
LINE
   5
153
 100
AcDbEntity
   8
0
   6
DEFAULT
 100
AcDbLine
  10
1996.448436
  20
-8387.384245
  30
0.000000
  11
1996.448436
  21
-8077.424500
  31
0.000000
   0
LINE
   5
154
 100
AcDbEntity
   8
0
   6
DEFAULT
 100
AcDbLine
  10
196.448436
  20
-8387.384245
  30
0.000000
  11
196.448436
  21
-8077.424500
  31
0.000000
   0
TEXT
   5
155
 100
AcDbEntity
   8
0
 100
AcDbText
  40
160.000000
   1
36
   7
ゴシック50
  10
971.448436
  20
-8242.384245
  30
0.000000
  72
1
  11
1096.448436
  21
-8287.384245
  31
0.000000
 100
AcDbText
  73
1
   0
ENDBLK
   5
156
 100
AcDbEntity
   8
躯体
 100
AcDbBlockEnd
   0
BLOCK
   5
157
 100
AcDbEntity
   8
躯体
 100
AcDbBlockBegin
   2
NO_NAME_DIMCHAIN$21
  70
0
  10
0.000000
  20
0.000000
  30
0.000000
   1

   3
NO_NAME_DIMCHAIN$21
   0
ATTDEF
   5
158
 100
AcDbEntity
   8
0
 100
AcDbText
  10
0.000000
  20
0.000000
  30
0.000000
  40
2.500000
   1
no:name:DIMCHAIN
 100
AcDbAttributeDefinition
   3

   2
ISI_MICROGDS_OBJECT_NAME
  70
3
   0
LINE
   5
159
 100
AcDbEntity
   8
0
   6
DEFAULT
 100
AcDbLine
  10
-13505.011003
  20
-319.581131
  30
0.000000
  11
-13505.011003
  21
738.644975
  31
0.000000
   0
TEXT
   5
15A
 100
AcDbEntity
   8
0
 100
AcDbText
  40
160.000000
   1
殳
   7
ゴシック50
  10
-11207.120899
  20
196.758632
  30
0.000000
  72
1
  11
-11082.120899
  21
151.758632
  31
0.000000
 100
AcDbText
  73
1
   0
ENDBLK
   5
15B
 100
AcDbEntity
   8
躯体
 100
AcDbBlockEnd
   0
BLOCK
   5
15C
 100
AcDbEntity
   8
躯体
 100
AcDbBlockBegin
   2
NO_NAME_DIMCHAIN$22
  70
0
  10
0.000000
  20
0.000000
  30
0.000000
   1

   3
NO_NAME_DIMCHAIN$22
   0
ATTDEF
   5
15D
 100
AcDbEntity
   8
0
 100
AcDbText
  10
0.000000
  20
0.000000
  30
0.000000
  40
2.500000
   1
no:name:DIMCHAIN
 100
AcDbAttributeDefinition
   3

   2
ISI_MICROGDS_OBJECT_NAME
  70
3
   0
TEXT
   5
15E
 100
AcDbEntity
   8
0
 100
AcDbText
  40
160.000000
   1
小殳
   7
ゴシック50
  10
-9133.708624
  20
2082.697356
  30
0.000000
  72
1
  11
-8883.708624
  21
2037.697356
  31
0.000000
 100
AcDbText
  73
1
   0
ENDBLK
   5
15F
 100
AcDbEntity
   8
躯体
 100
AcDbBlockEnd
   0
BLOCK
   5
160
 100
AcDbEntity
   8
躯体
 100
AcDbBlockBegin
   2
NO_NAME_DIMCHAIN$23
  70
0
  10
0.000000
  20
0.000000
  30
0.000000
   1

   3
NO_NAME_DIMCHAIN$23
   0
ATTDEF
   5
161
 100
AcDbEntity
   8
0
 100
AcDbText
  10
0.000000
  20
0.000000
  30
0.000000
  40
2.500000
   1
no:name:DIMCHAIN
 100
AcDbAttributeDefinition
   3

   2
ISI_MICROGDS_OBJECT_NAME
  70
3
   0
TEXT
   5
162
 100
AcDbEntity
   8
0
 100
AcDbText
  40
160.000000
   1
勾
   7
ゴシック50
  10
1458.271517
  20
7963.541157
  30
0.000000
  72
1
  11
1583.271517
  21
7918.541157
  31
0.000000
 100
AcDbText
  73
1
   0
ENDBLK
   5
163
 100
AcDbEntity
   8
躯体
 100
AcDbBlockEnd
   0
BLOCK
   5
164
 100
AcDbEntity
   8
躯体
 100
AcDbBlockBegin
   2
NO_NAME_DIMCHAIN$24
  70
0
  10
0.000000
  20
0.000000
  30
0.000000
   1

   3
NO_NAME_DIMCHAIN$24
   0
ATTDEF
   5
165
 100
AcDbEntity
   8
0
 100
AcDbText
  10
0.000000
  20
0.000000
  30
0.000000
  40
2.500000
   1
no:name:DIMCHAIN
 100
AcDbAttributeDefinition
   3

   2
ISI_MICROGDS_OBJECT_NAME
  70
3
   0
TEXT
   5
166
 100
AcDbEntity
   8
0
 100
AcDbText
  40
160.000000
   1
玄
   7
ゴシック50
  10
-9147.471037
  20
8066.206415
  30
0.000000
  72
1
  11
-9022.471037
  21
8021.206415
  31
0.000000
 100
AcDbText
  73
1
   0
LINE
   5
167
 100
AcDbEntity
   8
0
   6
DEFAULT
 100
AcDbLine
  10
-11697.715111
  20
7953.924314
  30
0.000000
  11
-11697.715111
  21
6839.284186
  31
0.000000
   0
ENDBLK
   5
168
 100
AcDbEntity
   8
躯体
 100
AcDbBlockEnd
   0
BLOCK
   5
169
 100
AcDbEntity
   8
躯体
 100
AcDbBlockBegin
   2
NO_NAME_DIMCHAIN$25
  70
0
  10
0.000000
  20
0.000000
  30
0.000000
   1

   3
NO_NAME_DIMCHAIN$25
   0
ATTDEF
   5
16A
 100
AcDbEntity
   8
0
 100
AcDbText
  10
0.000000
  20
0.000000
  30
0.000000
  40
2.500000
   1
no:name:DIMCHAIN
 100
AcDbAttributeDefinition
   3

   2
ISI_MICROGDS_OBJECT_NAME
  70
3
   0
LINE
   5
16B
 100
AcDbEntity
   8
0
   6
DEFAULT
 100
AcDbLine
  10
-11697.715111
  20
7575.759098
  30
0.000000
  11
-11697.715111
  21
7467.784331
  31
0.000000
   0
TEXT
   5
16C
 100
AcDbEntity
   8
0
 100
AcDbText
  40
160.000000
   1
長玄
   7
ゴシック50
  10
-9854.471596
  20
7421.397128
  30
0.000000
  72
1
  11
-9604.471596
  21
7376.397128
  31
0.000000
 100
AcDbText
  73
1
   0
TEXT
   5
16D
 100
AcDbEntity
   8
0
 100
AcDbText
  40
160.000000
   1
短玄
   7
ゴシック50
  10
-6789.446740
  20
7451.347165
  30
0.000000
  72
1
  11
-6539.446740
  21
7406.347165
  31
0.000000
 100
AcDbText
  73
1
   0
ENDBLK
   5
16E
 100
AcDbEntity
   8
躯体
 100
AcDbBlockEnd
   0
BLOCK
   5
16F
 100
AcDbEntity
   8
躯体
 100
AcDbBlockBegin
   2
NO_NAME_DIMCHAIN$26
  70
0
  10
0.000000
  20
0.000000
  30
0.000000
   1

   3
NO_NAME_DIMCHAIN$26
   0
ATTDEF
   5
170
 100
AcDbEntity
   8
0
 100
AcDbText
  10
0.000000
  20
0.000000
  30
0.000000
  40
2.500000
   1
no:name:DIMCHAIN
 100
AcDbAttributeDefinition
   3

   2
ISI_MICROGDS_OBJECT_NAME
  70
3
   0
TEXT
   5
171
 100
AcDbEntity
   8
0
 100
AcDbText
  40
160.000000
   1
中勾
   7
ゴシック50
  10
-5978.942349
  20
-7620.974555
  30
0.000000
  72
1
  11
-5728.942349
  21
-7665.974555
  31
0.000000
 100
AcDbText
  73
1
   0
ENDBLK
   5
172
 100
AcDbEntity
   8
躯体
 100
AcDbBlockEnd
   0
BLOCK
   5
173
 100
AcDbEntity
   8
躯体
 100
AcDbBlockBegin
   2
NO_NAME_DIMCHAIN$27
  70
0
  10
0.000000
  20
0.000000
  30
0.000000
   1

   3
NO_NAME_DIMCHAIN$27
   0
ATTDEF
   5
174
 100
AcDbEntity
   8
0
 100
AcDbText
  10
0.000000
  20
0.000000
  30
0.000000
  40
2.500000
   1
no:name:DIMCHAIN
 100
AcDbAttributeDefinition
   3

   2
ISI_MICROGDS_OBJECT_NAME
  70
3
   0
TEXT
   5
175
 100
AcDbEntity
   8
0
 100
AcDbText
  40
160.000000
   1
小中勾
   7
ゴシック50
  10
-7065.683632
  20
-6820.179517
  30
0.000000
  72
1
  11
-6690.683632
  21
-6865.179517
  31
0.000000
 100
AcDbText
  73
1
   0
ENDBLK
   5
176
 100
AcDbEntity
   8
躯体
 100
AcDbBlockEnd
   0
BLOCK
   5
177
 100
AcDbEntity
   8
躯体
 100
AcDbBlockBegin
   2
NO_NAME_DIMCHAIN$28
  70
0
  10
0.000000
  20
0.000000
  30
0.000000
   1

   3
NO_NAME_DIMCHAIN$28
   0
ATTDEF
   5
178
 100
AcDbEntity
   8
0
 100
AcDbText
  10
0.000000
  20
0.000000
  30
0.000000
  40
2.500000
   1
no:name:DIMCHAIN
 100
AcDbAttributeDefinition
   3

   2
ISI_MICROGDS_OBJECT_NAME
  70
3
   0
LINE
   5
179
 100
AcDbEntity
   8
0
   6
BLANK
 100
AcDbLine
  10
-6667.511509
  20
-7816.271649
  30
0.000000
  11
-4437.180658
  21
-7816.271649
  31
0.000000
   0
LINE
   5
17A
 100
AcDbEntity
   8
0
   6
ポイント01
 100
AcDbLine
  10
-6667.511509
  20
-7816.271649
  30
0.000000
  11
-4437.180658
  21
-7816.271649
  31
0.000000
   0
LINE
   5
17B
 100
AcDbEntity
   8
0
   6
DEFAULT
 100
AcDbLine
  10
-4437.180658
  20
-7916.271649
  30
0.000000
  11
-4437.180658
  21
-7348.534137
  31
0.000000
   0
ENDBLK
   5
17C
 100
AcDbEntity
   8
躯体
 100
AcDbBlockEnd
   0
BLOCK
   5
17D
 100
AcDbEntity
   8
躯体
 100
AcDbBlockBegin
   2
NO_NAME_DIMCHAIN$29
  70
0
  10
0.000000
  20
0.000000
  30
0.000000
   1

   3
NO_NAME_DIMCHAIN$29
   0
ATTDEF
   5
17E
 100
AcDbEntity
   8
0
 100
AcDbText
  10
0.000000
  20
0.000000
  30
0.000000
  40
2.500000
   1
no:name:DIMCHAIN
 100
AcDbAttributeDefinition
   3

   2
ISI_MICROGDS_OBJECT_NAME
  70
3
   0
LINE
   5
17F
 100
AcDbEntity
   8
0
   6
BLANK
 100
AcDbLine
  10
-6679.015177
  20
-6630.930480
  30
0.000000
  11
-6240.681948
  21
-6630.930480
  31
0.000000
   0
LINE
   5
180
 100
AcDbEntity
   8
0
   6
ポイント01
 100
AcDbLine
  10
-6679.015177
  20
-6630.930480
  30
0.000000
  11
-6240.681948
  21
-6630.930480
  31
0.000000
   0
LINE
   5
181
 100
AcDbEntity
   8
0
   6
DEFAULT
 100
AcDbLine
  10
-6240.681948
  20
-6730.930480
  30
0.000000
  11
-6240.681948
  21
-6468.907785
  31
0.000000
   0
ENDBLK
   5
182
 100
AcDbEntity
   8
躯体
 100
AcDbBlockEnd
   0
BLOCK
   5
183
 100
AcDbEntity
   8
躯体
 100
AcDbBlockBegin
   2
NO_NAME_DIMCHAIN$30
  70
0
  10
0.000000
  20
0.000000
  30
0.000000
   1

   3
NO_NAME_DIMCHAIN$30
   0
ATTDEF
   5
184
 100
AcDbEntity
   8
0
 100
AcDbText
  10
0.000000
  20
0.000000
  30
0.000000
  40
2.500000
   1
no:name:DIMCHAIN
 100
AcDbAttributeDefinition
   3

   2
ISI_MICROGDS_OBJECT_NAME
  70
3
   0
LINE
   5
185
 100
AcDbEntity
   8
0
   6
BLANK
 100
AcDbLine
  10
-13505.011003
  20
128.995984
  30
0.000000
  11
-8505.011003
  21
128.995984
  31
0.000000
   0
LINE
   5
186
 100
AcDbEntity
   8
0
   6
ポイント01
 100
AcDbLine
  10
-13505.011003
  20
128.995984
  30
0.000000
  11
-8505.011003
  21
128.995984
  31
0.000000
   0
LINE
   5
187
 100
AcDbEntity
   8
0
   6
DEFAULT
 100
AcDbLine
  10
-8505.011003
  20
28.995984
  30
0.000000
  11
-8505.011003
  21
738.644778
  31
0.000000
   0
LINE
   5
188
 100
AcDbEntity
   8
0
   6
DEFAULT
 100
AcDbLine
  10
-13505.011003
  20
28.995984
  30
0.000000
  11
-13505.011003
  21
688.644975
  31
0.000000
   0
ENDBLK
   5
189
 100
AcDbEntity
   8
躯体
 100
AcDbBlockEnd
   0
BLOCK
   5
18A
 100
AcDbEntity
   8
躯体
 100
AcDbBlockBegin
   2
NO_NAME_DIMCHAIN$31
  70
0
  10
0.000000
  20
0.000000
  30
0.000000
   1

   3
NO_NAME_DIMCHAIN$31
   0
ATTDEF
   5
18B
 100
AcDbEntity
   8
0
 100
AcDbText
  10
0.000000
  20
0.000000
  30
0.000000
  40
2.500000
   1
no:name:DIMCHAIN
 100
AcDbAttributeDefinition
   3

   2
ISI_MICROGDS_OBJECT_NAME
  70
3
   0
LINE
   5
18C
 100
AcDbEntity
   8
0
   6
BLANK
 100
AcDbLine
  10
-9490.051950
  20
2348.585301
  30
0.000000
  11
-8505.011003
  21
2348.585301
  31
0.000000
   0
LINE
   5
18D
 100
AcDbEntity
   8
0
   6
ポイント01
 100
AcDbLine
  10
-9490.051950
  20
2348.585301
  30
0.000000
  11
-8505.011003
  21
2348.585301
  31
0.000000
   0
LINE
   5
18E
 100
AcDbEntity
   8
0
   6
DEFAULT
 100
AcDbLine
  10
-8505.011003
  20
2248.585301
  30
0.000000
  11
-8505.011003
  21
2668.516853
  31
0.000000
   0
LINE
   5
18F
 100
AcDbEntity
   8
0
   6
DEFAULT
 100
AcDbLine
  10
-9490.051950
  20
2248.585301
  30
0.000000
  11
-9490.051950
  21
2745.223813
  31
0.000000
   0
ENDBLK
   5
190
 100
AcDbEntity
   8
躯体
 100
AcDbBlockEnd
   0
BLOCK
   5
191
 100
AcDbEntity
   8
躯体
 100
AcDbBlockBegin
   2
NO_NAME_DIMCHAIN$32
  70
0
  10
0.000000
  20
0.000000
  30
0.000000
   1

   3
NO_NAME_DIMCHAIN$32
   0
ATTDEF
   5
192
 100
AcDbEntity
   8
0
 100
AcDbText
  10
0.000000
  20
0.000000
  30
0.000000
  40
2.500000
   1
no:name:DIMCHAIN
 100
AcDbAttributeDefinition
   3

   2
ISI_MICROGDS_OBJECT_NAME
  70
3
   0
LINE
   5
193
 100
AcDbEntity
   8
0
   6
BLANK
 100
AcDbLine
  10
788.644778
  20
7852.509795
  30
0.000000
  11
3287.523309
  21
7852.509795
  31
0.000000
   0
LINE
   5
194
 100
AcDbEntity
   8
0
   6
ポイント01
 100
AcDbLine
  10
788.644778
  20
7852.509795
  30
0.000000
  11
3287.523309
  21
7852.509795
  31
0.000000
   0
LINE
   5
195
 100
AcDbEntity
   8
0
   6
DEFAULT
 100
AcDbLine
  10
3287.523309
  20
7752.509795
  30
0.000000
  11
3287.523309
  21
8455.011003
  31
0.000000
   0
LINE
   5
196
 100
AcDbEntity
   8
0
   6
DEFAULT
 100
AcDbLine
  10
788.644778
  20
7752.509795
  30
0.000000
  11
788.644778
  21
8455.011003
  31
0.000000
   0
ENDBLK
   5
197
 100
AcDbEntity
   8
躯体
 100
AcDbBlockEnd
   0
BLOCK
   5
198
 100
AcDbEntity
   8
躯体
 100
AcDbBlockBegin
   2
NO_NAME_DIMCHAIN$33
  70
0
  10
0.000000
  20
0.000000
  30
0.000000
   1

   3
NO_NAME_DIMCHAIN$33
   0
ATTDEF
   5
199
 100
AcDbEntity
   8
0
 100
AcDbText
  10
0.000000
  20
0.000000
  30
0.000000
  40
2.500000
   1
no:name:DIMCHAIN
 100
AcDbAttributeDefinition
   3

   2
ISI_MICROGDS_OBJECT_NAME
  70
3
   0
LINE
   5
19A
 100
AcDbEntity
   8
0
   6
BLANK
 100
AcDbLine
  10
-11697.715111
  20
7332.079815
  30
0.000000
  11
-7209.392672
  21
7332.079815
  31
0.000000
   0
LINE
   5
19B
 100
AcDbEntity
   8
0
   6
ポイント01
 100
AcDbLine
  10
-11697.715111
  20
7332.079815
  30
0.000000
  11
-7209.392672
  21
7332.079815
  31
0.000000
   0
LINE
   5
19C
 100
AcDbEntity
   8
0
   6
DEFAULT
 100
AcDbLine
  10
-7209.392672
  20
7432.079815
  30
0.000000
  11
-7209.392672
  21
6804.405755
  31
0.000000
   0
LINE
   5
19D
 100
AcDbEntity
   8
0
   6
BLANK
 100
AcDbLine
  10
-7209.392672
  20
7332.079815
  30
0.000000
  11
-6085.515942
  21
7332.079815
  31
0.000000
   0
LINE
   5
19E
 100
AcDbEntity
   8
0
   6
ポイント01
 100
AcDbLine
  10
-7209.392672
  20
7332.079815
  30
0.000000
  11
-6085.515942
  21
7332.079815
  31
0.000000
   0
LINE
   5
19F
 100
AcDbEntity
   8
0
   6
DEFAULT
 100
AcDbLine
  10
-6085.515942
  20
7432.079815
  30
0.000000
  11
-6085.515942
  21
6840.398912
  31
0.000000
   0
ENDBLK
   5
1A0
 100
AcDbEntity
   8
躯体
 100
AcDbBlockEnd
   0
BLOCK
   5
1A1
 100
AcDbEntity
   8
躯体
 100
AcDbBlockBegin
   2
NO_NAME_DIMCHAIN$34
  70
0
  10
0.000000
  20
0.000000
  30
0.000000
   1

   3
NO_NAME_DIMCHAIN$34
   0
ATTDEF
   5
1A2
 100
AcDbEntity
   8
0
 100
AcDbText
  10
0.000000
  20
0.000000
  30
0.000000
  40
2.500000
   1
no:name:DIMCHAIN
 100
AcDbAttributeDefinition
   3

   2
ISI_MICROGDS_OBJECT_NAME
  70
3
   0
LINE
   5
1A3
 100
AcDbEntity
   8
0
   6
BLANK
 100
AcDbLine
  10
-11697.715111
  20
7912.396723
  30
0.000000
  11
-6085.515942
  21
7912.396723
  31
0.000000
   0
LINE
   5
1A4
 100
AcDbEntity
   8
0
   6
ポイント01
 100
AcDbLine
  10
-11697.715111
  20
7912.396723
  30
0.000000
  11
-6085.515942
  21
7912.396723
  31
0.000000
   0
LINE
   5
1A5
 100
AcDbEntity
   8
0
   6
DEFAULT
 100
AcDbLine
  10
-6085.515942
  20
8012.396723
  30
0.000000
  11
-6085.515942
  21
7217.742934
  31
0.000000
   0
ENDBLK
   5
1A6
 100
AcDbEntity
   8
躯体
 100
AcDbBlockEnd
   0
BLOCK
   5
1A7
 100
AcDbEntity
   8
躯体
 100
AcDbBlockBegin
   2
NO_NAME$1
  70
0
  10
0.000000
  20
0.000000
  30
0.000000
   1

   3
NO_NAME$1
   0
ATTDEF
   5
1A8
 100
AcDbEntity
   8
0
 100
AcDbText
  10
0.000000
  20
0.000000
  30
0.000000
  40
2.500000
   1
no:name
 100
AcDbAttributeDefinition
   3

   2
ISI_MICROGDS_OBJECT_NAME
  70
3
   0
LWPOLYLINE
   5
1A9
 100
AcDbEntity
   8
0
   6
実線03
 100
AcDbPolyline
  90
3
  70
1
  43
0.000000
  38
0.000000
  10
-13505.011003
  20
788.644975
  10
-8505.011003
  20
788.644778
  10
-8505.011003
  20
3287.523309
   0
LINE
   5
1AA
 100
AcDbEntity
   8
0
   6
実線03
 100
AcDbLine
  10
-8699.072121
  20
3190.536284
  30
0.000000
  11
-8505.011003
  21
2795.223813
  31
0.000000
   0
LINE
   5
1AB
 100
AcDbEntity
   8
0
   6
実線03
 100
AcDbLine
  10
-9490.051950
  20
2795.223813
  30
0.000000
  11
-8505.011003
  21
2795.223813
  31
0.000000
   0
LINE
   5
1AC
 100
AcDbEntity
   8
0
   6
実線03
 100
AcDbLine
  10
-9490.051950
  20
2795.223813
  30
0.000000
  11
-8505.011003
  21
788.644778
  31
0.000000
   0
ENDBLK
   5
1AD
 100
AcDbEntity
   8
躯体
 100
AcDbBlockEnd
   0
BLOCK
   5
1AE
 100
AcDbEntity
   8
間仕切
 100
AcDbBlockBegin
   2
NO_NAME$2
  70
0
  10
0.000000
  20
0.000000
  30
0.000000
   1

   3
NO_NAME$2
   0
ATTDEF
   5
1AF
 100
AcDbEntity
   8
0
 100
AcDbText
  10
0.000000
  20
0.000000
  30
0.000000
  40
2.500000
   1
no:name
 100
AcDbAttributeDefinition
   3

   2
ISI_MICROGDS_OBJECT_NAME
  70
3
   0
LINE
   5
1B0
 100
AcDbEntity
   8
0
   6
実線01
 100
AcDbLine
  10
-403.551564
  20
6984.575500
  30
0.000000
  11
2596.448436
  21
6984.575500
  31
0.000000
   0
LINE
   5
1B1
 100
AcDbEntity
   8
0
   6
実線01
 100
AcDbLine
  10
-403.551564
  20
6972.575500
  30
0.000000
  11
2596.448436
  21
6972.575500
  31
0.000000
   0
LINE
   5
1B2
 100
AcDbEntity
   8
0
   6
実線01
 100
AcDbLine
  10
10653.423963
  20
-14184.596926
  30
0.000000
  11
14350.000000
  21
-12334.260475
  31
0.000000
   0
LINE
   5
1B3
 100
AcDbEntity
   8
0
   6
実線01
 100
AcDbLine
  10
12681.105379
  20
-14184.304277
  30
0.000000
  11
14350.000000
  21
-13348.932160
  31
0.000000
   0
LINE
   5
1B4
 100
AcDbEntity
   8
0
   6
実線01
 100
AcDbLine
  10
13352.679149
  20
-15527.424673
  30
0.000000
  11
14350.000000
  21
-15028.211589
  31
0.000000
   0
LINE
   5
1B5
 100
AcDbEntity
   8
0
   6
実線01
 100
AcDbLine
  10
11340.217924
  20
-15527.424661
  30
0.000000
  11
14350.000000
  21
-14020.865730
  31
0.000000
   0
LINE
   5
1B6
 100
AcDbEntity
   8
0
   6
実線01
 100
AcDbLine
  10
7590.218036
  20
-8027.424500
  30
0.000000
  11
14350.000000
  21
-4643.787631
  31
0.000000
   0
LINE
   5
1B7
 100
AcDbEntity
   8
0
   6
実線01
 100
AcDbLine
  10
9602.602361
  20
-8027.424500
  30
0.000000
  11
14350.000000
  21
-5651.094942
  31
0.000000
   0
LINE
   5
1B8
 100
AcDbEntity
   8
0
   6
実線01
 100
AcDbLine
  10
90.448314
  20
6972.575500
  30
0.000000
  11
14350.000000
  21
14110.253177
  31
0.000000
   0
LINE
   5
1B9
 100
AcDbEntity
   8
0
   6
実線01
 100
AcDbLine
  10
2096.448436
  20
6984.575500
  30
0.000000
  11
14350.000000
  21
13118.141504
  31
0.000000
   0
LINE
   5
1BA
 100
AcDbEntity
   8
0
   6
実線01
 100
AcDbLine
  10
14350.000000
  20
13103.138118
  30
0.000000
  11
2102.448560
  21
6972.575500
  31
0.000000
   0
LINE
   5
1BB
 100
AcDbEntity
   8
0
   6
実線01
 100
AcDbLine
  10
1596.448436
  20
3960.114443
  30
0.000000
  11
14350.000000
  21
10343.957519
  31
0.000000
   0
LINE
   5
1BC
 100
AcDbEntity
   8
0
   6
実線01
 100
AcDbLine
  10
14350.000000
  20
9093.680469
  30
0.000000
  11
2096.448436
  21
2960.114464
  31
0.000000
   0
LINE
   5
1BD
 100
AcDbEntity
   8
0
   6
実線01
 100
AcDbLine
  10
6906.716471
  20
12096.101592
  30
0.000000
  11
14350.000000
  21
-2773.985185
  31
0.000000
   0
ENDBLK
   5
1BE
 100
AcDbEntity
   8
間仕切
 100
AcDbBlockEnd
   0
ENDSEC
   0
SECTION
   2
ENTITIES
   0
INSERT
   5
1BF
 100
AcDbEntity
   8
図面枠
 100
AcDbBlockReference
   2
NO_NAME
  10
0.000000
  20
0.000000
  30
0.000000
   0
INSERT
   5
1C0
 100
AcDbEntity
   8
図面枠
 100
AcDbBlockReference
   2
NO_NAME$0
  10
0.000000
  20
0.000000
  30
0.000000
   0
INSERT
   5
1C1
 100
AcDbEntity
   8
図面枠
 100
AcDbBlockReference
   2
NO_NAME_HATCH
  10
0.000000
  20
0.000000
  30
0.000000
  50
60.000000
   0
INSERT
   5
1C2
 100
AcDbEntity
   8
躯体
 100
AcDbBlockReference
   2
NO_NAME_DIMCHAIN
  10
0.000000
  20
0.000000
  30
0.000000
   0
INSERT
   5
1C3
 100
AcDbEntity
   8
躯体
 100
AcDbBlockReference
   2
NO_NAME_DIMCHAIN$0
  10
0.000000
  20
0.000000
  30
0.000000
   0
INSERT
   5
1C4
 100
AcDbEntity
   8
躯体
 100
AcDbBlockReference
   2
NO_NAME_DIMCHAIN$1
  10
0.000000
  20
0.000000
  30
0.000000
   0
INSERT
   5
1C5
 100
AcDbEntity
   8
躯体
 100
AcDbBlockReference
   2
NO_NAME_DIMCHAIN$2
  10
0.000000
  20
0.000000
  30
0.000000
  50
90.000000
   0
INSERT
   5
1C6
 100
AcDbEntity
   8
躯体
 100
AcDbBlockReference
   2
NO_NAME_DIMCHAIN$3
  10
0.000000
  20
0.000000
  30
0.000000
   0
INSERT
   5
1C7
 100
AcDbEntity
   8
躯体
 100
AcDbBlockReference
   2
NO_NAME_DIMCHAIN$4
  10
0.000000
  20
0.000000
  30
0.000000
   0
INSERT
   5
1C8
 100
AcDbEntity
   8
躯体
 100
AcDbBlockReference
   2
NO_NAME_DIMCHAIN$5
  10
0.000000
  20
0.000000
  30
0.000000
   0
INSERT
   5
1C9
 100
AcDbEntity
   8
躯体
 100
AcDbBlockReference
   2
NO_NAME_DIMCHAIN$6
  10
0.000000
  20
0.000000
  30
0.000000
   0
INSERT
   5
1CA
 100
AcDbEntity
   8
躯体
 100
AcDbBlockReference
   2
NO_NAME_DIMCHAIN$7
  10
0.000000
  20
0.000000
  30
0.000000
  50
90.000000
   0
INSERT
   5
1CB
 100
AcDbEntity
   8
躯体
 100
AcDbBlockReference
   2
NO_NAME_DIMCHAIN$8
  10
0.000000
  20
0.000000
  30
0.000000
  50
90.000000
   0
INSERT
   5
1CC
 100
AcDbEntity
   8
躯体
 100
AcDbBlockReference
   2
NO_NAME_DIMCHAIN$9
  10
0.000000
  20
0.000000
  30
0.000000
  50
90.000000
   0
INSERT
   5
1CD
 100
AcDbEntity
   8
躯体
 100
AcDbBlockReference
   2
NO_NAME_DIMCHAIN$10
  10
0.000000
  20
0.000000
  30
0.000000
  50
90.000000
   0
INSERT
   5
1CE
 100
AcDbEntity
   8
躯体
 100
AcDbBlockReference
   2
NO_NAME_DIMCHAIN$11
  10
0.000000
  20
0.000000
  30
0.000000
   0
INSERT
   5
1CF
 100
AcDbEntity
   8
躯体
 100
AcDbBlockReference
   2
NO_NAME_DIMCHAIN$12
  10
0.000000
  20
0.000000
  30
0.000000
   0
INSERT
   5
1D0
 100
AcDbEntity
   8
躯体
 100
AcDbBlockReference
   2
NO_NAME_DIMCHAIN$13
  10
0.000000
  20
0.000000
  30
0.000000
   0
INSERT
   5
1D1
 100
AcDbEntity
   8
躯体
 100
AcDbBlockReference
   2
NO_NAME_DIMCHAIN$14
  10
0.000000
  20
0.000000
  30
0.000000
  50
117.000000
   0
INSERT
   5
1D2
 100
AcDbEntity
   8
躯体
 100
AcDbBlockReference
   2
NO_NAME_DIMCHAIN$15
  10
0.000000
  20
0.000000
  30
0.000000
  50
27.000000
   0
INSERT
   5
1D3
 100
AcDbEntity
   8
躯体
 100
AcDbBlockReference
   2
NO_NAME_DIMCHAIN$16
  10
0.000000
  20
0.000000
  30
0.000000
  50
27.000000
   0
INSERT
   5
1D4
 100
AcDbEntity
   8
躯体
 100
AcDbBlockReference
   2
NO_NAME_DIMCHAIN$17
  10
0.000000
  20
0.000000
  30
0.000000
  50
27.000000
   0
INSERT
   5
1D5
 100
AcDbEntity
   8
躯体
 100
AcDbBlockReference
   2
NO_NAME_DIMCHAIN$18
  10
0.000000
  20
0.000000
  30
0.000000
  50
333.000000
   0
INSERT
   5
1D6
 100
AcDbEntity
   8
躯体
 100
AcDbBlockReference
   2
NO_NAME_DIMCHAIN$19
  10
0.000000
  20
0.000000
  30
0.000000
   0
INSERT
   5
1D7
 100
AcDbEntity
   8
躯体
 100
AcDbBlockReference
   2
NO_NAME_DIMCHAIN$20
  10
0.000000
  20
0.000000
  30
0.000000
   0
INSERT
   5
1D8
 100
AcDbEntity
   8
躯体
 100
AcDbBlockReference
   2
NO_NAME_DIMCHAIN$21
  10
0.000000
  20
0.000000
  30
0.000000
   0
INSERT
   5
1D9
 100
AcDbEntity
   8
躯体
 100
AcDbBlockReference
   2
NO_NAME_DIMCHAIN$22
  10
0.000000
  20
0.000000
  30
0.000000
   0
INSERT
   5
1DA
 100
AcDbEntity
   8
躯体
 100
AcDbBlockReference
   2
NO_NAME_DIMCHAIN$23
  10
0.000000
  20
0.000000
  30
0.000000
  50
90.000000
   0
INSERT
   5
1DB
 100
AcDbEntity
   8
躯体
 100
AcDbBlockReference
   2
NO_NAME_DIMCHAIN$24
  10
0.000000
  20
0.000000
  30
0.000000
  50
27.000000
   0
INSERT
   5
1DC
 100
AcDbEntity
   8
躯体
 100
AcDbBlockReference
   2
NO_NAME_DIMCHAIN$25
  10
0.000000
  20
0.000000
  30
0.000000
  50
27.000000
   0
INSERT
   5
1DD
 100
AcDbEntity
   8
躯体
 100
AcDbBlockReference
   2
NO_NAME_DIMCHAIN$26
  10
0.000000
  20
0.000000
  30
0.000000
  50
297.000000
   0
INSERT
   5
1DE
 100
AcDbEntity
   8
躯体
 100
AcDbBlockReference
   2
NO_NAME_DIMCHAIN$27
  10
0.000000
  20
0.000000
  30
0.000000
  50
297.000000
   0
INSERT
   5
1DF
 100
AcDbEntity
   8
躯体
 100
AcDbBlockReference
   2
NO_NAME_DIMCHAIN$28
  10
0.000000
  20
0.000000
  30
0.000000
  50
296.000000
   0
INSERT
   5
1E0
 100
AcDbEntity
   8
躯体
 100
AcDbBlockReference
   2
NO_NAME_DIMCHAIN$29
  10
0.000000
  20
0.000000
  30
0.000000
  50
296.000000
   0
INSERT
   5
1E1
 100
AcDbEntity
   8
躯体
 100
AcDbBlockReference
   2
NO_NAME_DIMCHAIN$30
  10
0.000000
  20
0.000000
  30
0.000000
   0
INSERT
   5
1E2
 100
AcDbEntity
   8
躯体
 100
AcDbBlockReference
   2
NO_NAME_DIMCHAIN$31
  10
0.000000
  20
0.000000
  30
0.000000
   0
INSERT
   5
1E3
 100
AcDbEntity
   8
躯体
 100
AcDbBlockReference
   2
NO_NAME_DIMCHAIN$32
  10
0.000000
  20
0.000000
  30
0.000000
  50
90.000000
   0
INSERT
   5
1E4
 100
AcDbEntity
   8
躯体
 100
AcDbBlockReference
   2
NO_NAME_DIMCHAIN$33
  10
0.000000
  20
0.000000
  30
0.000000
  50
27.000000
   0
INSERT
   5
1E5
 100
AcDbEntity
   8
躯体
 100
AcDbBlockReference
   2
NO_NAME_DIMCHAIN$34
  10
0.000000
  20
0.000000
  30
0.000000
  50
27.000000
   0
INSERT
   5
1E6
 100
AcDbEntity
   8
躯体
 100
AcDbBlockReference
   2
NO_NAME$1
  10
0.000000
  20
0.000000
  30
0.000000
   0
INSERT
   5
1E7
 100
AcDbEntity
   8
間仕切
 100
AcDbBlockReference
   2
NO_NAME$2
  10
0.000000
  20
0.000000
  30
0.000000
   0
VIEWPORT
   5
1E8
 100
AcDbEntity
  67
1
   8
0
 100
AcDbViewport
  10
-975.478474
  20
-45.606544
  30
0.000000
  40
30651.956949
  41
34289.110084
  68
1
  69
1
1001
ACAD
1000
MVIEW
1002
{
1070
16
1010
0.000000
1020
0.000000
1030
0.000000
1010
0.000000
1020
0.000000
1030
1.000000
1040
0.000000
1040
34289.110084
1040
-975.478474
1040
-45.606544
1040
50.000000
1040
0.000000
1040
0.000000
1070
0
1070
100
1070
1
1070
1
1070
0
1070
0
1070
0
1070
0
1040
0.000000
1040
0.000000
1040
0.000000
1040
1.000000
1040
1.000000
1040
10.000000
1040
10.000000
1070
0
1002
{
1002
}
1002
}
   0
ENDSEC
   0
SECTION
   2
OBJECTS
   0
DICTIONARY
   5
1E9
 100
AcDbDictionary
   3
ACAD_GROUP
 350
1EA
   3
ACAD_MLINESTYLE
 350
1EB
   0
DICTIONARY
   5
1EA
 102
{ACAD_REACTORS
 330
1E9
 102
}
 100
AcDbDictionary
   0
DICTIONARY
   5
1EB
 102
{ACAD_REACTORS
 330
1E9
 102
}
 100
AcDbDictionary
   3
STANDARD
 350
1EC
   0
MLINESTYLE
   5
1EC
 102
{ACAD_REACTORS
 330
1EB
 102
}
 100
AcDbMlineStyle
   2
STANDARD
  70
0
   3
 
  62
0
  51
90.000000
  52
90.000000
  71
2
  49
0.500000
  62
256
   6
BYLAYER
  49
-0.500000
  62
256
   6
BYLAYER
   0
ENDSEC
   0
EOF
